Exodus
Impact is Imminent
Impact is Imminent
Transcribed by Mike Kimball
[[email protected]]
[geocities.com/bloodmetalcontent]

As with all guitar tablature, a mono-spaced font
(e.g. Courier or Monaco) is required to display properly...

Fig. 1
|---------------------------------------------------
|---------------------------------------------------
|---------------------------------------------------
|--------------------------------5------------------
|----------------7-------------5-----------------7--
|--0-000-0-0-6-5---0-000-0-3-6-----0-000-0-0-6-5----

|---------------------------------------------------
|---------------------------------------------------
|---------------------------------------------------
|----------------5---------------5------------------
|--8-5---------5---------------5---------------7----
|------6-0-3-6-----0-000-0-3-6-----0-000-0-0-6------

|-----------------------------------
|-----------------------------------
|-----------------------------------
|----------------5-8----------------
|--------------5-----7-0-----5------
|--0-000-0-3-6-----------0-6---3-6--


Fig. 2
|-----------------
|-----------------
|-----------------
|--------------0--
|--8-5-0-------0--
|--------0-6-0----


Fig. 3
|-----------------------------------------------------
|-----------------------------------------------------
|-----------------------------------------------------
|-----------------------------------------------------
|--2-----9-8-----8-7-------5---3---2-----3-5-----5-7--
|--0---0-7-6---0-6-5---0-0-3-0-1---0---0-1-3---0-3-5--

|-------------------------------------------------------------
|-------------------------------------------------------------
|-------------------------------------------------------------
|-------------------------------------------------------------
|------8---9---2-----9-8-----8-7-------5---3---2-----9-8---5--
|--0-0-6-0-7---0---0-7-6---0-6-5---0-0-3-0-1---0---0-7-6---3--

||-------------------||------------------
||-------------------||------------------
||-------------------||------------------
||-------------------||--8---------------
||-------------------||----7-0-----5-----
||--0000000000000000-||--------0-6---3-6-
    |__||__||__||__|


Fig. 4
[solo 1]
|------------------------------------------------------
|------------------------------------------------------
|------------------------------------------------------
|--------------0---------------0---------------0-------
|--2-----2-5---0---2-----2-5---0---2-----2-5---0---2---
|--0---0-0-3-------0---0-0-3-------0---0-0-3-------0---

|--------------
|--------------
|--------------
|----4-3-------
|----2-1---5---
|--0-------3---

[solo 2]
|--------------------------------------------------
|--------------------------------------------------
|--------------------------------------------------
|--------------3---3-----3-3-------------------3---
|--2-----2-5---0---1-----2-1---5---2-----2-5---0---
|--0---0-0-3-----------0-------3---0---0-0-3-------

|------------------
|------------------
|------------------
|--3-----3-3-------
|--1-111-2-1---5---
|--------------3---

Visit MetalTabs.com for more metal tablatur


Текст, аккорды и табулатура для песни "Impact Is Imminent", исполняет "Exodus".
Используемые в песне аккорды можно найти в разделе Как брать аккорды. Аккорды для шестиструнной гитары. Другие песни можно найти на нашем сайте, воспользовавшись алфавитным указателем вверху страницы.


 
Ошибка в тексте? Выделите ошибку и нажмите Ctrl+Enter