Exodus
Corruption
Fabulous Disaster
Transcribed by Mike Kimball, March 2002
[[email protected]]
[geocities.com/bloodmetalcontent] 

As with all guitar tablature, a mono-spaced font
(e.g. Courier or Monaco) is required to display properly...

Fig. 1
|----------------------------------
|----------------------------------
|----------------------------------
|----------------------------------
|----------------------------------
|--0---0-0---0-0---0-0---0-0---0---


Fig. 2
|------------------------------------------------------------------
|------------------------------------------------------------------
|------------------------------------------------------------------
|--------------------------------------------------------------5---
|--5-----7--/8---------------------------------------------5---3---
|--3---0-5--/6-0---0-0---0-0---0---0---0-0---0-0---0-0---0-3-------

|---------------------------------|---------------------------------
|---------------------------------|---------------------------------
|---------------------------------|---------------------------------
|--3------------------------------|---------------------------------
|--1------------------------------|---------------------------------
|------0-0---0-0---0-0---0-0---0--|-0---0-0---0-0---0-0---0-0---0---

[last ending]
|------------------------------------
|------------------------------------
|------------------------------------
|--------------------------------0---
|--------------------5-----3-----0---
|--0---0-0---0-0-----3-----1---------



Fig. 3
|------------------------------------------------------------------
|------------------------------------------------------------------
|------------------------------------------------------------------
|------------------------------5---3-------------------------------
|--5-----7--/8-------------5---3---1-------------------------------
|--3---0-5--/6-0---0-0---0-3-----------0-0---0-0---0-0---0-0---0---

|------------------------------------------------------------------
|------------------------------------------------------------------
|------------------------------------------------------------------
|------------------------------5---3-----------------------------0-
|--5-----7--/8-------------5---3---1-----------------5-----3-----0-
|--3---0-5--/6-0---0-0---0-3-----------0-0---0-0-----3-----1-------


Fig. 4
|--------------------------------|-------------------------------
|--------------------------------|-------------------------------
|--------------------------------|-------------------------------
|--------3-----3-----------------|-------3-----5-----------------
|----3---2-----1-----------------|---3---1-----3-----------------
|--0h1-------0---------0---0---0-|-0h1-------0---------0---0---0-

[ending]
|----------------------------------
|----------------------------------
|----------------------------------
|--------3-----3-------3---3---3---
|----3---2-----1-------2---1---2---
|--0h1-------0---------------------


Fig. 5
|------------------------------------------------------------------
|------------------------------------------------------------------
|------------------------------------------------------------------
|--5---------------------------------------------------------------
|--3-----3-----2---------------------------------------------------
|------0-1-----0-------0---0---0---0---0-0---0-0---0-0---0-0---0---

|------------------------------------------------------------------
|------------------------------------------------------------------
|------------------------------------------------------------------
|--5-------------------------------------------------------3-------
|--3-----3-----2-------------------------------------------1-------
|------0-1-----0-------0---0---0---0---0-0---0-0---0-0---0---------

[final ending]
|------------------------------------------------------------------
|------------------------------------------------------------------
|------------------------------------------------------------------
|--5---------------------------2---3-----5-----3---2---------------
|--3-----3-----2-------3---5---0---1-----3-----1---0-----5-----3---
|------0-1-----0-------1---3-----------------------------3-----1---


Fig. 6
|------------------------------------------------------------------
|------------------------------------------------------------------
|------------------------------------------------------------------
|------------------------------------------------------------------
|--7-----7--/8-5-------------------8-----8--10-7-------------------
|--5-----5--/6-3---0-0---0-0---0---6-----6--/8-5---0-0---0-0---0---

|------------------------------------------------------------------
|------------------------------------------------------------------
|------------------------------------------------------------------
|--5-----5--/7---------------------7-----7-----9-----9-----9---9---
|--3-----3--/5-5-----5-----5---5---5-----5-----7-----7-----7---7---
|--------------6---6-6---6-6---6-----------------------------------


Fig. 7
|------------------------------------------------------------------
|------------------------------------------------------------------
|------------------------------------------------------------------
|------------------------------------------------------------------
|--7-----7--/8-5-----5-----5---5---8-----8--10-7-----7-----7---7---
|--5-----5--/6-3---3-3---3-3---3---6-----6--/8-5---5-5---5-5---5---

|------------------------------------------------------------------
|------------------------------------------------------------------
|------------------------------------------------------------------
|--5-----5--/7---------------------7-----7-----9-----9-----9---9---
|--3-----3--/5-5-----5-----5---5---5-----5-----7-----7-----7---7---
|--------------6---6-6---6-6---6-----------------------------------

|------------------------------------------------------------------
|------------------------------------------------------------------
|------------------------------------------------------------------
|------------------------------------------------------------------
|--7-----7--/8-5-------------------8-----8--10-7-------------------
|--5-----5--/6-3---0-0---0-0---0---6-----6--/8-5---0-0---0-0---0---

|------------------------------------------------------------------
|------------------------------------------------------------------
|------------------------------------------------------------------
|--5-----5--/7---------------------7-----7-----9-------7---9-------
|--3-----3--/5-5-----5-----5---5---5-----5-----7-------5---7-------
|--------------6---6-6---6-6---6-------------------------------0-0-


Fig. 8
|------------------------------------------------------------------
|------------------------------------------------------------------
|------------------------------------------------------------------
|------------------------------------------------------------------
|--2---------------------------------------------------------------
|--0---------------------------0-0-0---0-0---0-0---0-0---0-0---0---

|-------------------------------------------|-----------------------
|-------------------------------------------|-----------------------
|-------------------------------------------|-----------------------
|-------------------------------------------|-----------------------
|--2---------------------------5-7-7-----7--|---5-7-7---7---3---5---
|--0---------------------------3/5-6-----5--|-0-3/5-6---5---1---3---


Fig. 9
[solo rhythm 1]
|------------------------------------------------------------------
|------------------------------------------------------------------
|------------------------------------------------------------------
|------------------------------------------------------------------
|--2-----2-----5---5-----5-----2---2-----2-----3-----3-----2---2---
|--0---0-0-----3---4-----3---0-0---0---0-0-----1-----1-----0---0---

|------------------------------------------------------------------
|------------------------------------------------------------------
|------------------------------------------------------------------
|----------------------------------------------------3-------------
|--2-----2-----5---5-----5-----2---2-----2-----3-----1-----2---2---
|--0---0-0-----3---4-----3---0-0---0---0-0-----1-----------0---0---


Fig. 10
[solo rhythm 2]
|------------------------------------------------------------------
|------------------------------------------------------------------
|------------------------------------------------------------------
|------------------------------------------------------------------
|--4-----4-----4---5-----4-----5---2-----2-----4-----5-----4---2---
|--2-----2-----2---3-----2-----3---0---0-0-----2-----3-----2---0---

|------------------------------------------------------------------
|------------------------------------------------------------------
|------------------------------------------------------------------
|------------------------------------------------------------------
|--4-----4-----4---5-----4-----5---2-----2-----3-----3-----4---3---
|--2-----2-----2---3-----2-----3---0---0-0-----1-----1-----2---1---


Fig. 11
[gtr. 1]
|------------------------------------------------------------------
|------------------------------------------------------------------
|--------------------------9--------------------------------10-----
|------------------6---9---------------------------7---10----------
|-------------/7------------------------------/7-------------------
|--0---0-0-------------------------0---0-0-------------------------

|------------------------------------------------------------------
|------------------------------------------------------------------
|------------------------------------------------------------------
|------------------3---7-------------------------------------------
|-------------/5-----------5---5-7-7-----7-----5-7-7---7---3---5---
|--0---0-0---------------------3/5-6-----5-----3/5-6---5---1---3---

[gtr. 2]
|------------------------------------------------------------------
|--------------------------9--------------------------------10-----
|----------------------7--------------------------------9----------
|-------------/6---9--------------------------/7---10--------------
|------------------------------------------------------------------
|--0---0-0-------------------------0---0-0-------------------------

|------------------------------------------------------------------
|------------------------------------------------------------------
|------------------------------------------------------------------
|------------------7---10------------------------------------------
|-------------/8-----------8---5-7-7-----7-----5-7-7---7---3---5---
|--0---0-0---------------------3/5-6-----5-----3/5-6---5---1---3---


****FOR EDUCATIONAL USE ONLY!! USE THIS FOR COMMERCIAL****
****PURPOSES, AND WE WILL HUNT YOU DOWN, KILL YOU, THEN****
****TORTURE YOUR IMMORTAL SOUL FOR ALL ETERNITY!!!!!!!!****


Текст, аккорды и табулатура для песни "Corrupton", исполняет "Exodus".
Используемые в песне аккорды можно найти в разделе Как брать аккорды. Аккорды для шестиструнной гитары. Другие песни можно найти на нашем сайте, воспользовавшись алфавитным указателем вверху страницы.


 
Ошибка в тексте? Выделите ошибку и нажмите Ctrl+Enter