The Exies- My Goddess
Album: Inertia
Transcribed by: Alex
Two Guitars

Drop D Tuning (could be played in standard tuning but its easier in drop d)

figure out how many times you have to play each part yourself

Intro (Both Guitars)
E-----------------------
B-----------------------
G-----------------------
D--6/8-8-x-7-777-6666---
A--6/8-8-x-7-777-6666---
D--6/8-8-x-7-777-6666---

Verse (Both Guitars)
E--------------------------
B--------------------------
G--3-3---3-3---6-6---4-4---
D--3-3---3-3---6-6---4-4---
A--1-1---1-1---4-4---2-2---
D--------------------------

Chorus
Guitar #1
E----------------------------------------------------------------------
B----------------------------------------------------------------------
G-------------------6-6-6--8-88-8888----------------6-6-6--8-88-8888---
D--6/8-8-88-88-8888-6-6-6--8-88-8888--4-44-444-4444-6-6-6--8-88-8888---
A--6/8-8-88-88-8888-4-4-4--6-66-6666--4-44-444-4444-4-4-4--6-66-6666---
D--6/8-8-88-88-8888-------------------4-44-444-4444--------------------

Guitar #2 (with some kind of wah effect)
E----------------------------------------------------18-18-18-18---
B------------------------------------------------------------------
G-------------------6-6-6-8-8-8888---------------------------------
D--6/8-8-6/8-8-8888-----------------6/8-8-6/8-8-8888---------------
A------------------------------------------------------------------
D------------------------------------------------------------------

After Chorus
Guitar #2 (w/wah effect)
E------------------
B------------------
G------------------
D--6/8-8-6/8-8-8---
A------------------
D------------------

Verse

Chorus





Bridge
Guitar #1 Only (Clean)
E-----------------------------------------
B--------------------4------------4-------
G--6---8---6---8---6---6-8--8-6-6---6-8---
D--6---8---6---8---6-----8------6-----8---
A--4---6---4---6---4-----6------4-----6---
D-----------------------------------------

Chorus

Outro- same as intro

www.the-exies.com

done.  that’s a pretty easy song.  feel free to post your comments or
corrections, or e-mail them to me at [email protected]  peace out.


Текст, аккорды и табулатура для песни "My Goddess", исполняет "Exies".
Используемые в песне аккорды можно найти в разделе Как брать аккорды. Аккорды для шестиструнной гитары. Другие песни можно найти на нашем сайте, воспользовавшись алфавитным указателем вверху страницы.


Слушать онлайн My Goddess


The ExiesMy Goddess на Яндекс.Музыке


 
Ошибка в тексте? Выделите ошибку и нажмите Ctrl+Enter