Guitar Drop In D
x = Palm Mute

Drum Intro

Part A
E|-------------------------------------|
B|-----4-------4--------2-------2------|
G|---4---4---4---4----4---4---4---4----|
D|-6-------4--------2-------2----------|
A|-------------------------------------|
D|-------------------------------------|
Guitare 2
E|-------------------------------------|
B|-------------------------------------|
G|-------------------------------------|2 Times
D|-9-------6-------9-------6-----------|
A|-9-------6-------9-------6-----------|
D|-9-------6-------9-------6-----------|

E|-----------------|
B|-----------------|
G|-----------------|
D|-9-9-9-9-9-9-9-9-|
A|-9-9-9-9-9-9-9-9-|
D|-9-9-9-9-9-9-9-9-|
   x x x x x x x x

Part B
E|-------------------------------------------------------------|
B|-------------------------------------------------------------|
G|-------------------------------------------------------------|
D|-6-6-6-6-6-6-6-6-9-9-9-9-9-9-9-9-0-0-0--0-0-0--0-0-0--0-0-0--|
A|-6-6-6-6-9-6-6-6-9-9-9-9-9-9-9-9-0-0-0--0-0-0--0-0-0--0-0-0--|
D|-6-6-6-6-6-6-6-6-9-9-9-9-9-9-9-9-0-0-0--0-0-0--0-0-0--0-0-0--|

E|-------------------------------------------------------------|
B|-------------------------------------------------------------|
G|-------------------------------------------------------------|
D|-6-6-6-6-6-6-6-6-9-9-9-9-9-9-9-9-0-0-2--0-0-2--0-0-2-2/4-4/2-|
A|-6-6-6-6-9-6-6-6-9-9-9-9-9-9-9-9-0-0----0-0----0-0-----------|
D|-6-6-6-6-6-6-6-6-9-9-9-9-9-9-9-9-0-0----0-0----0-0-----------|

Part C
E|---------------------------------------------|
B|---------4-------------4---------2-x-2-x-2---|
G|-----4-4---4-------4-4--4--------4-x-4-x-4---|
D|-6-6---------6-4-4--------4--2-2-2-x-2-x-2---|
A|---------------------------------------------|
D|---------------------------------------------|

Part D
Guitare 2
E|---------------------------------------------|
B|---------------------------------------------|
G|---------------------------------------------|2 Times
D|-9-------------6------------2----------------|
A|-9-------------6------------2----------------|
D|-9-------------6------------2----------------|

Part E
E|----------------------------------------------------|
B|----------------------------------------------------|
G|----------------------------------------------------|2 Times
D|-6-x-x-6--6-6--x-x-9-9----2-x-x-2--2-2--x-x--2-2----|
A|-6-x-x-6--6-6--x-x-9-9----2-x-x-2--2-2--x-x--2-2----|
D|-6-x-x-6--6-6--x-x-9-9----2-x-x-2--2-2--x-x--2-2----|

Structure
A-B-C-D-B-C-D-E-A


Текст, аккорды и табулатура для песни "Sunday Bloody Sunday", исполняет "Evergreen Terrace".
Используемые в песне аккорды можно найти в разделе Как брать аккорды. Аккорды для шестиструнной гитары. Другие песни можно найти на нашем сайте, воспользовавшись алфавитным указателем вверху страницы.


Слушать онлайн Sunday Bloody Sunday


Evergreen TerraceSunday Bloody Sunday на Яндекс.Музыке


 
Ошибка в тексте? Выделите ошибку и нажмите Ctrl+Enter