ok , this is my first tab, its the whole song and i know some of it is wrong.
So i was hoping that people could try to fix it and we could make it 100% correct.

Dropped D tuning

and thanks to my favorite band , evergreen terrace...

-------------------------------
-------------------------------
-------------------------------
-7--5--3--2--------------------
-7--5--3--2--------------------
-7--5--3--2--------------------

Guitar 2 does Palm mutes 

--------------------------------------------------------------------------
--------------------------13131313----------------------------------------
--------14141414-12121212----------1010101010101010--1010-12p10-12p10-10p9
13131313------------------------------------------------------------------
--------------------------------------------------------------------------
--------------------------------------------------------------------------

--------------------------------------------------------------------------
--------------------------13131313--1515151515151515-17-15-13-12----------
--------14141414-12121212-------------------------------------------------
13131313------------------------------------------------------------------
--------------------------------------------------------------------------
--------------------------------------------------------------------------

--------------------------------------------------------------------------
---------------------------------------------------------5-66666----------
999999-777777-555555-4/5-4-4/5-4----999999-777777-555555-x-xxxxx----------
777777-555555-333333-2/3-2-2/3-2----777777-555555-333333-2-33333----------
777777-555555-333333-2/3-2-2/3-2----777777-555555-333333-----------------
777777-555555-333333-2/3-2-2/3-2----777777-555555-333333------------------

------------------------------13---------------------------
------------------------------17---------------------------
---------------------------------------------------------
-00-0000-0000-0000---------00------------------------------
-00-0000-0000-0000---------00------------------------------
-00-0000-0000-0000---------00------------------------------

----------------------------------------------------|---Guitar 2-----|
----------------------------------------------------|----------------|
----------------------------------------------------|---7------------|
0-0-0-0-------------------0----------0--------------|---x-strum------|
0-0-0-0-------------------0-x6-------0-x4-----------|---5------------|
0-0-0-0--7p5-6p5-7p4-6p4--0-----6p5--0----7p5-6p5---|----------------|

repeat the high pitched part again


Текст, аккорды и табулатура для песни "No Donnie These Men Are Nhilists", исполняет "Evergreen Terrace".
Используемые в песне аккорды можно найти в разделе Как брать аккорды. Аккорды для шестиструнной гитары. Другие песни можно найти на нашем сайте, воспользовавшись алфавитным указателем вверху страницы.


Слушать онлайн No Donnie These Men Are Nihilists


Evergreen TerraceNo Donnie These Men Are Nihilists на Яндекс.Музыке


 
Ошибка в тексте? Выделите ошибку и нажмите Ctrl+Enter