EVERCLEAR
SCIENCE FICTION
SLOW MOTION DAYDREAM
MUSIC BY ART ALEXAKIS AND EVERCLEAR
TABBED BY JR ([email protected])

Accoustic Guitar With Capo on 4th Fret

e-----2-2-----2-2-----2-2
b-3-3-0-0-3-3-0-0-3-3-0-0
g-0-0-----0-0-----0-0----
d------------------------
a------------------------
e------------------------

  There is always one in every crowd
  you can here the voices when your alone
  They sound like metal on metal
  Obnoxious and loud 
  Dont Let Go.........

e-0-0-0-0-0-0-0-0-4-4-4-4-4-4-4-4-
b-1-1-1-1-1-1-1-1-1-1-1-1-1-1-1-1-
g-0-0-0-0-0-0-0-0-2-2-2-2-2-2-2-2-
d-2-2-2-2-0-0-0-0-2-2-2-2-2-2-2-2-
a-3-3-3-3-2-2-2-2-0-0-0-0-0-0-0-0-
e---------------------------------
  Dont Listen To The Sound Of Those People You KNow 
  Slowly Falling Apart And Fallin Down Now 


e-----2-2-----2-2-----2-2
b-3-3-0-0-3-3-0-0-3-3-0-0
g-0-0-----0-0-----0-0----
d------------------------
a------------------------
e------------------------
 
 When I THink Im Alone
 I Watch The News On My Girl Friends TV
 Its Like A Bad B Moive 
 Aww Sometimes I Cant Comphrehend All The Stupid Things That I See

 SO DONT LET GO 

e-0-0-0-0-0-0-0-0-4-4-4-4-4-4-4-4-
b-1-1-1-1-1-1-1-1-1-1-1-1-1-1-1-1-
g-0-0-0-0-0-0-0-0-2-2-2-2-2-2-2-2-
d-2-2-2-2-0-0-0-0-2-2-2-2-2-2-2-2-
a-3-3-3-3-2-2-2-2-0-0-0-0-0-0-0-0-
e---------------------------------
  
 You Cant Believe Your Eyes
 Yeah When Everything Tht Show You 
 Just Makes You Want To Cry And You DOnt Want To Know 
 That You Need To Remember Life Is 

e---------
b-1-1-1-1-
g-1-1-1-1-
d-1-1-1-1-
a---------
e-4-4-4-4-
  
 Always Getting Better 

e-----2-2-----2-2-----2-2
b-3-3-0-0-3-3-0-0-3-3-0-0
g-0-0-----0-0-----0-0----
d------------------------
a------------------------
e------------------------

  So Dont Let Go 
  
  There Is Always One In Every Crowd
  Yeah You Here Them When You Think Your Alone
  It All Just Seems Like Science Fiction 
  No One Knows What They Are Talking About 

(STRINGS)

So Dont Let Go 
Dont Listen To The Sound
Of Those People You Know 
SLowly Falling Apart
And Falling Down Now
You Need To Remember Life Is Always Gettting Better

e-----------2-2---------------------
b-3-3-3-3-3-0-0-3-3-4-4-4-4-4-4-4-4-
g-0-0-0-0-0-----0-0-1-1-1-1-1-1-1-1-
d-----------------------------------
a-----------------------------------
e------------------------------------
  Life Is Always Getting Better
  Life Is Always Getting Better
  For A While 

e-----------6-6-6-3
b-4-4-4-4-4-4-4-4-0
g-1-1-1-1-1-1-1-1-0
d-----------------0
a-----------------2
e-----------------3


Текст, аккорды и табулатура для песни "Science Fiction", исполняет "Everclear".
Используемые в песне аккорды можно найти в разделе Как брать аккорды. Аккорды для шестиструнной гитары. Другие песни можно найти на нашем сайте, воспользовавшись алфавитным указателем вверху страницы.


Слушать онлайн Science Fiction


EverclearScience Fiction на Яндекс.Музыке


 
Ошибка в тексте? Выделите ошибку и нажмите Ctrl+Enter