Santa Monica
Sparkle And Fade
Words By Art Alexakis
Bass By Caig Montoya




Intro (*****Guitar Only*****)

Main Verse
G|---------------------------------------------------|
D|---------------------------------------------------|
A|---------------------------------------------------|
E|--3-3-----3-3-0-0-3-3---3-3-0-0-3-3---3-3-0-0-3-3--|
     G       G  Em7  G     G  Em7  G     G  Em7  G

G|-------------------------------------------|
D|-------------------------------------------|
A|----------5-5---5-5-7-7-3-3---3-3-7-7-5-5--|
E|--3-3-0-0----------------------------------|
     G  Em7  D     D   E   C     C   E   D

G|-------------------------------------------|
D|-------------------------------------------|
A|--5-5-7-7---------------5-5---5-5-7-7-3-3--|
E|----------3-3---3-3-0-0--------------------|
     D   E   G     G  Em7  D     D   E   C

G|------------------------------|
D|------------------------------|
A|--3-3-7-7-5-5---5-5-7-7-------|
E|------------------------3~~~--|
     C   E   D     D   E  G

Chorus
G|--------------------------------------|
D|--------------------------------------|
A|-------------------5-5---5-5-7-7-3-3--|
E|--------------------------------------|
                      D     D   E   C
We can live beside the ocean, leave the fire behind

G|-----------------------------------------------|
D|-----------------------------------------------|
A|--3-3-7-7-5-5---5-5-7-7---------------7-7-5-5--|
E|------------------------3-3-------3-3----------|
     C   E   D     D   E   G         G   E   D
swim out past the breakers, watch the world die__
We can live beside the ocean

G|-------------------------------------------|
D|-------------------------------------------|
A|--5-5-7-7-3-3---3-3-7-7-5-5---5-5-7-7------|
E|--------------------------------------3-3--|
     D   E   C     C   E   D     D   E   G
leave the fire behind,  swim out past the breakers,
watch the world die

G|------------------------------------------|
D|------------------------------------------|
A|------------------------------------------|
E|--3-3-0-0-3-3---3-3-0-0-3-3---3-3-0-0-3~--|
     G  Em7  G     G  Em7  G     G  Em7 G


Текст, аккорды и табулатура для песни "Santa Monica", исполняет "Everclear".
Используемые в песне аккорды можно найти в разделе Как брать аккорды. Аккорды для шестиструнной гитары. Другие песни можно найти на нашем сайте, воспользовавшись алфавитным указателем вверху страницы.


Слушать онлайн Santa Monica


EverclearSanta Monica на Яндекс.Музыке


 
Ошибка в тексте? Выделите ошибку и нажмите Ctrl+Enter