Here We Go Again
Songs From An American Movie Volume 1:
Learning How To Smile
Words By Art ALexakis
Music By Everclear

C7                                     C#7   
e|-----------------------------------------------|
B|-----------------------------------------------|
G|--3--3-------3--3-------3--3-------3--3--4-----|
D|--2--2-------2--2-------2--2-------2--2--3-----|
A|--3--3-------3--3-------3--3-------3--3--4-----|
E|-----------------------------------------------|

   C7               C#7     C
e|--------------------------0---------------------|
B|--------------------------1---------------------|
G|-3--3-------3--3--4-------0---------------------|
D|-2--2-------2--2--3-------2---------------------|
A|-3--3-------3--3--4-------3---------------------|
E|------------------------------------------------|
                             Ohhhhhh......

    C7                                     C#7   
e|-----------------------------------------------| x3
B|-----------------------------------------------|
G|--3--3-------3--3-------3--3-------3--3--4-----|
D|--2--2-------2--2-------2--2-------2--2--3-----|
A|--3--3-------3--3-------3--3-------3--3--4-----|
E|-----------------------------------------------|
Oh, you know I like to watch you sleep
No, I don't wanna touch you
You'll get mad at me
No, I don't wanna think about the bad times
Oh, anyone can have a bad year

    C7                                   B   A  
e|-----------------------------------------------| 
B|-----------------------------------------------|
G|--3--3-------3--3-------3--3-------5---4---2---|
D|--2--2-------2--2-------2--2-------5---4---2---|
A|--3--3-------3--3-------3--3-------3---2---0---|
E|-----------------------------------------------|
 |                                               |
e|-----------------------------------------------|
B|-----------------------------------13--12--10--|
G|-----------------------------------------------|
D|-------------------------------------10--10--10|
A|-----------------------------------------------|
E|-----------------------------------------------|
             Now I don't want you to show me

      A   G   F 
e|-----------------------------------------------|
B|-----------------------------------------------|
G|-----------------------------------------------|
D|----7---5---3----------------------------------|
A|----7---5---3----------------------------------|
E|----5---3---1----------------------------------|
 |                                               |
e|-----------------------------------------------|
B|-8--10--8---6--------1-3-4-4-4p3---------------|
G|-----------------2-----------------------------|
D|-----------------------------------------------|
A|-----------------------------------------------|
E|-----------------------------------------------|   
  Do not want you to know me     The way I used to be

    C7                                   B   A  
e|-----------------------------------------------| 
B|-----------------------------------------------|
G|--3--3-------3--3-------3--3-------5---4---2---|
D|--2--2-------2--2-------2--2-------5---4---2---|
A|--3--3-------3--3-------3--3-------3---2---0---|
E|-----------------------------------------------|
 |                                               |
e|-----------------------------------------------|
B|-----------------------------------13--12--10--|
G|-----------------------------------------------|
D|-------------------------------------10--10--10|
A|-----------------------------------------------|
E|-----------------------------------------------|
     All these good things we have would not mean a damn to me

      A   G   F 
e|-----------------------------------------------|
B|-----------------------------------------------|
G|-----------------------------------------------|
D|----7---5---3----------------------------------|
A|----7---5---3----------------------------------|
E|----5---3---1----------------------------------|
 |                                               |
e|-----------------------------------------------|
B|-8--10--8---6--------1-3-4-4-4p3---------------|
G|-----------------2-----------------------------|
D|-----------------------------------------------|
A|-----------------------------------------------|
E|-----------------------------------------------|   
I don't wanna hear those words you feel you have to say

   C7               C#7     C
e|--------------------------0---------------------|
B|--------------------------1---------------------|
G|-3--3-------3--3--4-------0---------------------|
D|-2--2-------2--2--3-------2---------------------|
A|-3--3-------3--3--4-------3---------------------|
E|------------------------------------------------|
When you find out how I used to be back in the day

    C7                                      C#7   
e|-----------------------------------------------| x3
B|-----------------------------------------------|
G|--3--3-------3--3-------3--3-------3--3--4-----|
D|--2--2-------2--2-------2--2-------2--2--3-----|
A|--3--3-------3--3-------3--3-------3--3--4-----|
E|-----------------------------------------------|
Yea, you know I like the way you slide
Yes, I like it when you do that slow glide
Please don't bad talk all those good times
Don't ask for answers baby 

    C7                                   B   A  
e|-----------------------------------------------| 
B|-----------------------------------------------|
G|--3--3-------3--3-------3--3-------5---4---2---|
D|--2--2-------2--2-------2--2-------5---4---2---|
A|--3--3-------3--3-------3--3-------3---2---0---|
 |                                               |
e|-----------------------------------------------|
B|-----------------------------------13--12--10--|
G|-----------------------------------------------|
D|-------------------------------------10--10--10|
A|-----------------------------------------------|
E|-----------------------------------------------|
  That you do not wanna hear     I don't want you to make me

      A   G   F 
e|-----------------------------------------------|
B|-----------------------------------------------|
G|-----------------------------------------------|
D|----7---5---3----------------------------------|
A|----7---5---3----------------------------------|
E|----5---3---1----------------------------------|
 |                                               |
e|-----------------------------------------------|
B|-8--10--8---6--------1-3-4-4-4p3---------------|
G|-----------------2-----------------------------|
D|-----------------------------------------------|
A|-----------------------------------------------|
E|-----------------------------------------------|   
Do not need you to break me of all my childish ways

    C7                                   B   A  
e|-----------------------------------------------| 
B|-----------------------------------------------|
G|--3--3-------3--3-------3--3-------5---4---2---|
D|--2--2-------2--2-------2--2-------5---4---2---|
A|--3--3-------3--3-------3--3-------3---2---0---|
 |                                               |
e|-----------------------------------------------|
B|-----------------------------------13--12--10--|
G|-----------------------------------------------|
D|-------------------------------------10--10--10|
A|-----------------------------------------------|
E|-----------------------------------------------|
I'm still the same you know. Dumb rock hard and good you go..
I still hear the voices calling me from

      A   G   F 
e|-----------------------------------------------|
B|-----------------------------------------------|
G|-----------------------------------------------|
D|----7---5---3----------------------------------|
A|----7---5---3----------------------------------|
E|----5---3---1----------------------------------|
 |                                               |
e|-----------------------------------------------|
B|-8--10--8---6--------1-3-4-4-4p3---------------|
G|-----------------2-----------------------------|
D|-----------------------------------------------|
A|-----------------------------------------------|
E|-----------------------------------------------|   
  Back in the day

   C7               C#7     C
e|--------------------------0---------------------|
B|--------------------------1---------------------|
G|-3--3-------3--3--4-------0---------------------|
D|-2--2-------2--2--3-------2---------------------|
A|-3--3-------3--3--4-------3---------------------|
E|------------------------------------------------|
Oh baby can't you see there ain't no place I'd rather be

   F                G 
e|-----------------------------------------------|
B|-----------------------------------------------|
G|-----------------------------------------------|
D|-3-3-3-3-3-3-3-3--5-5-5-5-5-5-5-5-5------------|
A|-3-3-3-3-3-3-3-3--5-5-5-5-5-5-5-5-5------------|
E|-1-1-1-1-1-1-1-1--3-3-3-3-3-3-3-3-3------------|
Then watching dirty movies in that happy room with you

   C           B    A
e|-----------------------------------------------|
B|-----------------------------------------------|
G|-5-5-5-5-5-5-4-4--2-2-2-2-2-2-2-2-2------------|
D|-5-5-5-5-5-5-4-4--2-2-2-2-2-2-2-2-2------------|
A|-3-3-3-3-3-3-2-2--0-0-0-0-0-0-0-0-0------------|
E|-----------------------------------------------|
  Sittin' on my mattress in the corner, eating chinese food

   F                G 
e|-----------------------------------------------|
B|-----------------------------------------------|
G|-----------------------------------------------|
D|-3-3-3-3-3-3-3-3--5-5-5-5-5-5-5-5-5------------|
A|-3-3-3-3-3-3-3-3--5-5-5-5-5-5-5-5-5------------|
E|-1-1-1-1-1-1-1-1--3-3-3-3-3-3-3-3-3------------|
   I hear that voice in my head say here we go again

    C7                                     C#7   
e|-----------------------------------------------|
B|-----------------------------------------------|
G|--3--3-------3--3-------3--3-------3--3--4-----|
D|--2--2-------2--2-------2--2-------2--2--3-----|
A|--3--3-------3--3-------3--3-------3--3--4-----|
E|-----------------------------------------------|
                         Now here we go again

   C7               C#7     C
e|--------------------------0---------------------|
B|--------------------------1---------------------|
G|-3--3-------3--3--4-------0---------------------|
D|-2--2-------2--2--3-------2---------------------|
A|-3--3-------3--3--4-------3---------------------|
E|------------------------------------------------|
                               I know you like the way I rock

    C7                                     C#7   
e|-----------------------------------------------| x3
B|-----------------------------------------------|
G|--3--3-------3--3-------3--3-------3--3--4-----|
D|--2--2-------2--2-------2--2-------2--2--3-----|
A|--3--3-------3--3-------3--3-------3--3--4-----|
E|-----------------------------------------------|
 |					         |
e|-----------------------------------------------|
B|------7p5--------------------------------------|
G|---------8p5-----------------------------------|
D|-----------------------------------------------|
A|-----------------------------------------------|
E|-----------------------------------------------|

Sometimes I just need to drown out all the bad talk
I could not care less what your friends say
Someone's always talking shit 

    C7                                   B   A  
e|-----------------------------------------------| 
B|-----------------------------------------------|
G|--3--3-------3--3-------3--3-------5---4---2---|
D|--2--2-------2--2-------2--2-------5---4---2---|
A|--3--3-------3--3-------3--3-------3---2---0---|
E|-----------------------------------------------|
 |                                               |
e|-----------------------------------------------|
B|-----------------------------------13--12--10--|
G|-----------------------------------------------|
D|-------------------------------------10--10--10|
A|-----------------------------------------------|
E|-----------------------------------------------|
	about the old day            You do not need to remind me

      A   G   F 
e|-----------------------------------------------|
B|-----------------------------------------------|
G|-----------------------------------------------|
D|----7---5---3----------------------------------|
A|----7---5---3----------------------------------|
E|----5---3---1----------------------------------|
 |                                               |
e|-----------------------------------------------|
B|-8--10--8---6--------1-3-4-4-4p3---------------|
G|-----------------2-----------------------------|
D|-----------------------------------------------|
A|-----------------------------------------------|
E|-----------------------------------------------|   
  That I left it all behind me  those things I used to do

    C7                                   B   A  
e|-----------------------------------------------| 
B|-----------------------------------------------|
G|--3--3-------3--3-------3--3-------5---4---2---|
D|--2--2-------2--2-------2--2-------5---4---2---|
A|--3--3-------3--3-------3--3-------3---2---0---|
E|-----------------------------------------------|
 |                                               |
e|-----------------------------------------------|
B|-----------------------------------13--12--10--|
G|-----------------------------------------------|
D|-------------------------------------10--10--10|
A|-----------------------------------------------|
E|-----------------------------------------------|
 I don't want that older life cause I am so in love with you

      A   G   F 
e|-----------------------------------------------|
B|-----------------------------------------------|
G|-----------------------------------------------|
D|----7---5---3----------------------------------|
A|----7---5---3----------------------------------|
E|----5---3---1----------------------------------|
 |                                               |
e|-----------------------------------------------|
B|-8--10--8---6--------1-3-4-4-4p3---------------|
G|-----------------2-----------------------------|
D|-----------------------------------------------|
A|-----------------------------------------------|
E|-----------------------------------------------|   
  I can barely hear it calling me from back in the day

   C7               C#7     C
e|--------------------------0---------------------|
B|--------------------------1---------------------|
G|-3--3-------3--3--4-------0---------------------|
D|-2--2-------2--2--3-------2---------------------|
A|-3--3-------3--3--4-------3---------------------|
E|------------------------------------------------|
Oh baby can't you see there ain't no place I'd rather be

   F                G 
e|-----------------------------------------------|
B|-----------------------------------------------|
G|-----------------------------------------------|
D|-3-3-3-3-3-3-3-3--5-5-5-5-5-5-5-5-5------------|
A|-3-3-3-3-3-3-3-3--5-5-5-5-5-5-5-5-5------------|
E|-1-1-1-1-1-1-1-1--3-3-3-3-3-3-3-3-3------------|
Then watching dirty movies in that happy room with you

   C           B    A
e|-----------------------------------------------|
B|-----------------------------------------------|
G|-5-5-5-5-5-5-4-4--2-2-2-2-2-2-2-2-2------------|
D|-5-5-5-5-5-5-4-4--2-2-2-2-2-2-2-2-2------------|
A|-3-3-3-3-3-3-2-2--0-0-0-0-0-0-0-0-0------------|
E|-----------------------------------------------|
  Sittin' on my mattress in the corner, eating chinese food

   F                G 
e|-----------------------------------------------|
B|-----------------------------------------------|
G|-----------------------------------------------|
D|-3-3-3-3-3-3-3-3--5-5-5-5-5-5-5-5-5------------|
A|-3-3-3-3-3-3-3-3--5-5-5-5-5-5-5-5-5------------|
E|-1-1-1-1-1-1-1-1--3-3-3-3-3-3-3-3-3------------|
   I hear that voice in my head say here we go again

    C7                                     C#7   
e|-----------------------------------------------|
B|-----------------------------------------------|
G|--3--3-------3--3-------3--3-------3--3--4-----|
D|--2--2-------2--2-------2--2-------2--2--3-----|
A|--3--3-------3--3-------3--3-------3--3--4-----|
E|-----------------------------------------------|
 |                                               |
e|-----------------------------------------4-3---|
B|-----------------------------------------6-5---|
G|-----------------------------------------6-5---|
D|-----------------------------------------------|
A|-----------------------------------------------|
E|-----------------------------------------------|
                                    Yeah here we go again

    C7                                     C#7   
e|-----------------------------------------------| x2
B|-----------------------------------------------|
G|--3--3-------3--3-------3--3-------3--3--4-----|
D|--2--2-------2--2-------2--2-------2--2--3-----|
A|--3--3-------3--3-------3--3-------3--3--4-----|
E|-----------------------------------------------|
 |                                               |
e|-----------------------------------------4-3---|
B|------7p5--------------------------------6-5---|
G|---------8p5-----------------------------6-5---|
D|-----------------------------------------------|
A|-----------------------------------------------|
E|-----------------------------------------------|
						Oh baby, here we go again
   I know, I know, I know, I know

   C7
e|-----------------------------------------------|
B|-----------------------------------------------|
G|-3-3-3-3-3-3-3-3-3-----------------------------|
D|-2-2-2-2-2-2-2-2-2-----------------------------|
A|-3-3-3-3-3-3-3-3-3-----------------------------|
E|-----------------------------------------------|
   I know....    Oh baby, baby can't you see

   F                G 
e|-----------------------------------------------|
B|-----------------------------------------------|
G|-----------------------------------------------|
D|-3-3-3-3-3-3-3-3--5-5-5-5-5-5-5-5-5------------|
A|-3-3-3-3-3-3-3-3--5-5-5-5-5-5-5-5-5------------|
E|-1-1-1-1-1-1-1-1--3-3-3-3-3-3-3-3-3------------|
Yes I know you have some doubts I know you don't believe

   C           B    A
e|-----------------------------------------------|
B|-----------------------------------------------|
G|-5-5-5-5-5-5-4-4--2-2-2-2-2-2-2-2-2------------|
D|-5-5-5-5-5-5-4-4--2-2-2-2-2-2-2-2-2------------|
A|-3-3-3-3-3-3-2-2--0-0-0-0-0-0-0-0-0------------|
E|-----------------------------------------------|
I know you think I'm crazy and I know you're just like me  

   F                G 
e|-----------------------------------------------|
B|-----------------------------------------------|
G|-----------------------------------------------|
D|-3-3-3-3-3-3-3-3--5-5-5-5-5-5-5-5-5------------|
A|-3-3-3-3-3-3-3-3--5-5-5-5-5-5-5-5-5------------|
E|-1-1-1-1-1-1-1-1--3-3-3-3-3-3-3-3-3------------|
When I hear that voice inside me makes me wanna jump right in

    C7                    C                                         
e|-----------------------------------------------| 
B|-----------------------------------------------|
G|--3--3-------3--3-------5--5--5--5--5--5--5--5-|
D|--2--2-------2--2-------5--5--5--5--5--5--5--5-|
A|--3--3-------3--3-------3--3--3--3--3--3--3--3-|
E|-----------------------------------------------|
Say here we go, here we go, here we go, here we go again

   F                G 
e|-----------------------------------------------|
B|-----------------------------------------------|
G|-----------------------------------------------|
D|-3-3-3-3-3-3-3-3--5-5-5-5-5-5-5-5-5------------|
A|-3-3-3-3-3-3-3-3--5-5-5-5-5-5-5-5-5------------|
E|-1-1-1-1-1-1-1-1--3-3-3-3-3-3-3-3-3------------|
Lets go watch some dirty movies, yes, in that nasty little room

   C           B    A
e|-----------------------------------------------|
B|-----------------------------------------------|
G|-5-5-5-5-5-5-4-4--2-2-2-2-2-2-2-2-2------------|
D|-5-5-5-5-5-5-4-4--2-2-2-2-2-2-2-2-2------------|
A|-3-3-3-3-3-3-2-2--0-0-0-0-0-0-0-0-0------------|
E|-----------------------------------------------|
Sit there on the mattress while we eat that greasy Chinese food

   F                G 
e|-----------------------------------------------|
B|-----------------------------------------------|
G|-----------------------------------------------|
D|-3-3-3-3-3-3-3-3--5----------------------------|
A|-3-3-3-3-3-3-3-3--5----------------------------|
E|-1-1-1-1-1-1-1-1--3----------------------------|
I hear that voice in my head say here we go again

    C7                                     C#7   
e|-----------------------------------------------| x2
B|-----------------------------------------------|
G|--3--3-------3--3-------3--3-------3--3--4-----|
D|--2--2-------2--2-------2--2-------2--2--3-----|
A|--3--3-------3--3-------3--3-------3--3--4-----|
E|-----------------------------------------------|
 |                                               |
e|-----------------------------------------4-3---|
B|-----------------------------------------6-5---|
G|-----------------------------------------6-5---|
D|-----------------------------------------------|
A|-----------------------------------------------|
E|-----------------------------------------------|                     
    Ohh...                      Baby here we go again

e|-----------3/----------------------------------|
B|-----------5/----------------------------------|
G|-----------5/----------------------------------|
D|-----------------------------------------------|
A|-----------------------------------------------|
E|-----------------------------------------------|


Текст, аккорды и табулатура для песни "Here We Go Again", исполняет "Everclear".
Используемые в песне аккорды можно найти в разделе Как брать аккорды. Аккорды для шестиструнной гитары. Другие песни можно найти на нашем сайте, воспользовавшись алфавитным указателем вверху страницы.


Слушать онлайн Here We Go Again


EverclearHere We Go Again на Яндекс.Музыке


 
Ошибка в тексте? Выделите ошибку и нажмите Ctrl+Enter