-----------------------------------
-----------------------------------
-----------------------------------
-6-6-6-6-6-6-6-6-6-6-6-6-6-6-------
-6-6-6-6-6-6-6-6-6-6-6-6-6-6-------
-4-4-4-4-4-4-4-4-4-4-4-4-4-4-------
p.m.........................
Davids got some issues now
he says he never is good enough
there is nothing that he wants to do
nothing he does is ever good enough

-----------------------------------
-----------------------------------
-----------------------------------
-9*-8*-6-6-6-6-6-6-6-6-6-----------  *=play 8 times.
-9--8--6-6-6-6-6-6-6-6-6-----------
-7--6--4-4-4-4-4-4-4-4-4-----------
p.m..............................
he hears is from the girls that he likes
that nothing is good enough
he hears it loud when he tries to sleep at night
that nothing is good enough

Chorus

-----------------------------------
-----------------------------------
-6*-8*-4*-2*-(6*-8*)---------------
-6--8--4--2--(6--8-)-


Текст, аккорды и табулатура для песни "Happy", исполняет "Everclear".
Используемые в песне аккорды можно найти в разделе Как брать аккорды. Аккорды для шестиструнной гитары. Другие песни можно найти на нашем сайте, воспользовавшись алфавитным указателем вверху страницы.


 
Ошибка в тексте? Выделите ошибку и нажмите Ctrl+Enter