Fire Maple Song
World Of Noise
Words By Art Alexakis
Music By Everclear

e|------------------| x3
B|------------------|
G|------1-----------|
D|-1h2------2---0---|
A|------------------|
E|----0---0---0---0-|

e|------------------| 
B|------------------|
G|------1-----------|
D|-1h2------2---0---|
A|------------------|
E|----0---0---0-----|

e|------------------------------------------| x6
B|------------------------------------------|
G|------------------------------------------|
D|-----1h2-2/4-4/6-6-6-------1h2-2/4-2-2-2--|
A|-1h2-------------------1h2----------------|
E|------------------------------------------|
(no lyrics first two times)
Turn away from the pain you don't want
Turn them down to avoid them when they call
Words I heard a long, long time ago
Wanna go back to a summertime
I knew more than twenty years ago,
Lay between the sheets, hide underneath the maple tree.

    G#       C#m     A         E   
e|--4--------4-------5-5-------7---------------------------|
B|--4--------5-------5---5-----9---------------------------|
G|--5--------6-------6---------9-9-----9-----9---9-----9---|
D|--6--------6-------7---------9---9-----9---------9-------|
A|--6--------4-------7---------7-----7-----7---7-----7-----|
E|--4----------------5-------------------------------------|
Now I can't smile.


e|------------------------------------------| x6
B|------------------------------------------|
G|------------------------------------------|
D|-----1h2-2/4-4/6-6-6-------1h2-2/4-2-2-2--|
A|-1h2-------------------1h2----------------|
E|------------------------------------------|
(no lyrics first two times)
Sitting in the grass with the wind around us
as we smile and talk,
Listen to your grandma sing those country songs,
She'd tell us how the maple turned to fire every four years,
Sit in the grass all summer just to watch the autumn come around

    G#       C#m     A       E   
e|--4-4------4-4-----5-5-----7-----------------------------|
B|--4---4----5---5---5---5---9-----------------------------|
G|--5--------6-------6-------9-9-----9------------9-------9|
D|--6--------6-------7-------9---9-----9------9-----9-----9-
A|--6------4-------7-------7---7-----9h11---7-----7--9h11---
E|--4----------------5-------------------------------------|
I can't smile 

    G#       C#m     A       E   
e|--4-4------4-4-----5-5-----7-----------------------------|
B|--4---4----5---5---5---5---9---------------0--0--0--0----|
G|--5--------6-------6-------9------9----9---1--1--1--1----|
D|--6--------6-------7-------9---------------2--2--2--2----|
A|--6--------4-------7-------7---------------2--2--2--2----|
E|--4----------------5--------------------------------------
I can't smile

   G#      A       C      E
e|---4-------5-------8-------0------| x2
B|-----4-------5-------8-------0----|
G|----------------------------------|
D|----------------------------------|
A|----------------------------------|
E|----------------------------------|   
Now I live alone, and you're so far away,
Yeah I call you every year just around the holidays

   G#         B          C          E
e|----4---------7-----------8-----------0---------| 
B|-------4---------7-----------8-----------0------|
G|------------------------------------------------|
D|------------------------------------------------|
A|------------------------------------------------|
E|------------------------------------------------|   
 |                                                |
e|-4--4--4--4/7--7--7--7/8--8--8--8---0--0--0---| 
B|-4--4--4--4/7--7--7--7/8--8--8--8---0--0--0---|
G|-5--5--5--5/8--8--8--8/9--9--9--9-1--1--1--1---|
D|-6--6--6--6/9--9--9--9/10-10-10-102--2--2--2---|
A|-6--6--6--6/9--9--9--9/10-10-10-102--2--2--2---|
E|-4--4--4--4/7--7--7--7/8--8--8--8---0--0--0---|   
I still see you in the night, lying above me in the grass

    G#       C#m     A         E   
e|--4-4------4-4-----5-5-------7---------------------------|
B|--4---4----5---5---5---5-----9---------------------------|
G|--5--------6-------6---------9-9-----9-----9---9-----9---|
D|--6--------6-------7---------9---9-----9---------9-------|
A|--6--------4-------7---------7-----7-----7---7-----7-----|
E|--4----------------5-------------------------------------|
I can't smile

e|------------------------------------------| x6
B|------------------------------------------|
G|------------------------------------------|
D|-----1h2-2/4-4/6-6-6-------1h2-2/4-2-2-2--|
A|-1h2-------------------1h2----------------|
E|------------------------------------------|
(no lyrics first two times)
Turn away from the pain you don't want
Turn them down to avoid them when they call
I can't believe this letter that says you've died
Gonna go back to that house in North Carolina,
Lay in the backyard,
Get drunk and let the leaves just bury me.

    G#       C#m     A       E   
e|--4-4------4-4-----5-5-----7--------------|
B|--4---4----5---5---5---5---9--------------|
G|--5--------6-------6-------9-9-----9------|
D|--6--------6-------7-------9---9-----9----|
A|--6--------4-------7-------7-----7--------|
E|--4----------------5----------------------|
I can't smile 

    G#       C#m     A       E   
e|--4-4------4-4-----5-5-----7--------------|
B|--4---4----5---5---5---5---9--------------|
G|--5--------6-------6-------9-9---9---9----|
D|--6--------6-------7-------9---9---9---9--|
A|--6--------4-------7-------7--------------|
E|--4----------------5----------------------|
I can't smile 

    G#       C#m     A       E   
e|--4-4------4-4-----5-5-----7--------------|
B|--4---4----5---5---5---5---9--------------|
G|--5--------6-------6-------9-9-----9------|
D|--6--------6-------7-------9---9-----9----|
A|--6--------4-------7-------7-----7--------|
E|--4----------------5----------------------|
I don't know what's happened to me,
I don't know what's happened to me

    G#       C#m     A         E   
e|--4-4------4-4-----5-5-------7---------------------------|
B|--4---4----5---5---5---5-----9---------------------------|
G|--5--------6-------6---------9----------------9------9---|
D|--6--------6-------7---------9-------------------9---9---|
A|--6--------4-------7---------7---------------------7-7---|
E|--4----------------5-------------------------------------|
I can't smile

e|-----------------------------------------------|
B|-----------------------------------------------|
G|-----------3-----------------------------------|
D|-----------------------------------------------|
A|-----------------------------------------------|
E|-----------------------------------------------|
 |                                               |
e|-----------------------------------------------|
B|-----------------------------------------------|
G|--------------------4-6-4----------------------|
D|-----------------------------------------------|
A|-----------------------------------------------|
E|-----------------------------------------------|
 
e|-----0h2-0----------------0h2-0---------------|
B|---0-0---0--------------0-0---0---------------|
G|-1--------------------1-----------------------|
D|----------------------------------------------|
A|----------------------------------------------|
E|----------------------------------------------|
 |                                              |
e|----------------------------------------------|
B|---------0-0-0-0-0-0-0-0-0-0-0-0-0-0-0-0-0-0--|
G|---------1-1-1-1-1-1-1-1-1-1-1-1-1-1-1-1-1-1--|
D|---------2-2-2-2-2-2-2-2-2-2-2-2-2-2-2-2-2-2--|
A|---------2-2-2-2-2-2-2-2-2-2-2-2-2-2-2-2-2-2--|
E|----------------------------------------------|

e|-----0h2-0-----------------0h2-0--------------| x3
B|---0-0---0---------------0-0---0--------------|
G|-1---------------------1----------------------|
D|----------------------------------------------|
A|----------------------------------------------|
E|----------------------------------------------|
 |                                              |
e|----------------------------------------------|
B|-0-0-0-0-0-0-0-0-0-0-0-0-0-0-0-0-0-0-0-0-0-0--|
G|-1-1-1-1-1-1-1-1-1-1-1-1-1-1-1-1-1-1-1-1-1-1--|
D|-2-2-2-2-2-2-2-2-2-2-2-2-2-2-2-2-2-2-2-2-2-2--|
A|-2-2-2-2-2-2-2-2-2-2-2-2-2-2-2-2-2-2-2-2-2-2--|
E|----------------------------------------------|

e|-----0h2-4-2-0---2-4-7-4-2-0---0h2-0----------|
B|---0-------------------------4----------------|
G|-1--------------------------------------------|
D|----------------------------------------------|
A|----------------------------------------------|
E|----------------------------------------------|
 |                                              |
e|----------------------------------------------|
B|-0-0-0-0-0-0-0-0-0-0-0-0-0-0-0-0-0-0-0-0-0-0--|
G|-1-1-1-1-1-1-1-1-1-1-1-1-1-1-1-1-1-1-1-1-1-1--|
D|-2-2-2-2-2-2-2-2-2-2-2-2-2-2-2-2-2-2-2-2-2-2--|
A|-2-2-2-2-2-2-2-2-2-2-2-2-2-2-2-2-2-2-2-2-2-2--|
E|----------------------------------------------|

                                (fade out)
e|--9-12-9-7-4-2-0---0h2-0----------------------|
B|-----------------4----------------------------|
G|----------------------------------------------|
D|----------------------------------------------|
A|----------------------------------------------|
E|----------------------------------------------|
 |                                              |
e|----------------------------------------------|
B|-0-0-0-0-0-0-0-0-0-0-0-0-0-0-0-0-0-0-0-0-0-0--|
G|-1-1-1-1-1-1-1-1-1-1-1-1-1-1-1-1-1-1-1-1-1-1--|
D|-2-2-2-2-2-2-2-2-2-2-2-2-2-2-2-2-2-2-2-2-2-2--|
A|-2-2-2-2-2-2-2-2-2-2-2-2-2-2-2-2-2-2-2-2-2-2--|
E|----------------------------------------------|


Текст, аккорды и табулатура для песни "Fire Maple Song", исполняет "Everclear".
Используемые в песне аккорды можно найти в разделе Как брать аккорды. Аккорды для шестиструнной гитары. Другие песни можно найти на нашем сайте, воспользовавшись алфавитным указателем вверху страницы.


Слушать онлайн Fire Maple Song


EverclearFire Maple Song на Яндекс.Музыке


 
Ошибка в тексте? Выделите ошибку и нажмите Ctrl+Enter