Name: madtoilet

Tabs: Band: Eve 6
CD: Horrorscope
Song: Promise
By: Mad Toilet n ([email protected])
    (originally done by airwalk, but he was kina wrong in a bit of 
this,
     i based this fairly on his, but changed evertyhing but his riff 
and
     the first cord ;) heh



Intro 
 (starts as a Power Corded A cord, and jumps to a D,
 
e---------------------------------
B---------------------------------
G--------------------------------------
D-----------------7-7-7--9-9-9----7-7-7
A-------7-7-7-7-7-5-5-5--7-7-7- --5-5-5
E-------5-5-5-5-5----------------------

 this i suppose is a turned down electric, less distortion
 and probably palm muted.

-----------|
-----------|
-------7---| this is that funky dee deww deww riff at
 --------7-| the end of the verse
-----------|
--5--------|




Verse
(Repeat)

e----------------------------------
B----------------------------------
G------------7777-9999-7777----------repeat this until the 
D-------7777-7777-9999-7777----------verse is over
A-------7777-5555-7777-5555----------  (notice similarity 
E-------5555-----------------------  to the intro)

Chorus
e--------------------------------------------------------------------
B--------------------------------------------------------------------
G-----xxxx-7-7-xxxx-9-9-xxx-9-9-xxx-----xxxx-7-7-xxxx-9-9-xxx-9-9-xxx
D-7-7-xxxx-7-7-xxxx-9-9-xxx-9-9-xxx-7-7-xxxx-7-7-xxxx-9-9-xxx-9-9-xxx
A-7-7-xxxx-5-5-xxxx-7-7-xxx-7-7-xxx-7-7-xxxx-5-5-xxxx-7-7-xxx-7-7-xxx
E-5-5-------------------------------5-5------------------------------
I promise...


 (now in the last part of the chorus, you gotta let that last cord ring
  n let it drag into the verse :)


(Verse)

(Chorus)


Ok as for the third verse, its either this,
 (but it hink its still too low)
e-----------------------------------------------------------------|
B-----------------------------------------------------------------|
G-----7-------7-------7-------7-------7-------7-------7-------7---|
D---7---7---7---7---7---7---7---7---7---7---7---7---7---7---7---7-|
A-5-------5-------5-------5-------5-------5-------5-------5------5|
E-----------------------------------------------------------------|

or
  (part of a pentonic scale int he key of A, (which the song is in)
  (seems to sound prett good to me)

e-------------------------- ---------------|
B------8--------8--------------------------|
G----7---7---7----7------------------------
D--5-------5--------5----------------------
A------------------------------------------
E------------------------------------------|
 
 either way, they both might be wrong, take a listen and improise, 
 its most likely one of the frequent cords int he song just being
 rippled.   If you cant figure it out, just ripple the verse it sounds
 fine, (adds a personal touch tot he song too :) hah


(Chorus)


   Ok thats the song,  now for the all famous excuse, i have never 
written
   a tab before cept for anything i wrote (and recorded) lemme know if 
this
   is wrong, and if it isnt, then PlAy On BaBy !

gonna go play some starcraft and go to work or something :)
love you all !
(shout outs to, Kermed, Jerepeth, Doc,and Daveo !)

-kenny man
[email protected]
 



Текст, аккорды и табулатура для песни "Promise", исполняет "Eve 6".
Используемые в песне аккорды можно найти в разделе Как брать аккорды. Аккорды для шестиструнной гитары. Другие песни можно найти на нашем сайте, воспользовавшись алфавитным указателем вверху страницы.


 
Ошибка в тексте? Выделите ошибку и нажмите Ctrl+Enter