Eve 6, Promise.
 Tabbed by Matt Blair, [email protected]
  
Eve 6 - Promise, tabbed by Matt Blair ([email protected])

Intro: Clean, Palm Mute. Play 5x
--------------------------------
--------------------------------
--------------------------------
--------------------------------
-------5-5-5-5-5-7-7-7-5-5-5-5-5
-5-5-5--------------------------
then this:
------
------
---4--
-4---7
------
------
Verse: PM, play 2x
--------------------------------
--------------------------------
-------7-7-7-7-7-9-9-9-7-7-7-7-7
-7-7-7-7-7-7-7-7-9-9-9-7-7-7-7-7
-7-7-7-5-5-5-5-5-7-7-7-5-5-5-5-5
-5-5-5--------------------------
then play:
-------------------------------
-------------------------------
------------7-7-9-9-9-7-7-7-7-7
-7-7---7--7-7-7-9-9-9-7-7-7-7-7
-7-7---7--7-5-5-7-7-7-5-5-5-5-5
-5-5---5--5--------------------

-----------------0-3-3-3
-----------------0-3-3-3
-6-6-6-7-7-7-7-7-1-4-4-4
-6-6-6-7-7-7-7-7-2-5-5-5
-4-4-4-5-5-5-5-5-2-5-5-5
-----------------0-3-3-3
Chorus: Distortion, play this part x2
----------------------------------------
----------------------------------------
-------------7-7------------------------
-7-7-x-x-x-x-7-7-x-x-x-x-2-2-x-x-x-x-2-2
-7-7-x-x-x-x-5-5-x-x-x-x-2-2-x-x-x-x-2-2
-5-5-x-x-x-x-----x-x-x-x-0-0-x-x-x-x-0-0
then play this:
----------------------------------------
----------------------------------------
-------------7-7------------------------
-7-7-x-x-x-x-7-7-x-x-x-x-2-2-x-x-x-x-4-4
-7-7-x-x-x-x-5-5-x-x-x-x-2-2-x-x-x-x-4-4
-5-5-x-x-x-x-----x-x-x-x-0-0-x-x-x-x-2-2

------------------
------------------
-------7-7-7-7-7-9
-7-7-7-7-7-7-7-7-9
-7-7-7-5-5-5-5-5-7
-5-5-5------------
then this:
------
------
---4--
-4---7
------
------
Verse 2: PM, play 2x
--------------------------------
--------------------------------
-------7-7-7-7-7-9-9-9-7-7-7-7-7
-7-7-7-7-7-7-7-7-9-9-9-7-7-7-7-7
-7-7-7-5-5-5-5-5-7-7-7-5-5-5-5-5
-5-5-5--------------------------
then play:
----------------------------
----------------------------
-------------6-6-6-7-7-7-7-7
-7--7---7--7-6-6-6-7-7-7-7-7
-7--7---7--7-4-4-4-5-5-5-5-7
-5--5---5--5----------------

-----------------0-3-3-3
-----------------0-3-3-3
-6-6-6-7-7-7-7-7-1-4-4-4
-6-6-6-7-7-7-7-7-2-5-5-5
-4-4-4-5-5-5-5-5-2-5-5-5
-----------------0-3-3-3

Repeat Chorus 1, Then Play Bridge

Bridge: Clean
-----5-----5-------5-----5--
---5-----5---5---5-----5---5
----------------------------
-4-----0-------2-----0------
----------------------------
----------------------------

-----5-----5-------5-----5--
---5-----5---5---5-----5---5
----------------------------
-4-----0-------2------------
---------------------0------
----------------------------

-----5-----5-------5-----5--
---5-----5---5---5-----5---5
----------------------------
-4-----0-------2-----0------
----------------------------
----------------------------

-----5-----5-------5-----5--
---5-----5---5---5-----5---5
----------------------------
-4-----0-------2-----0------
----------------------------
----------------------------

-----5-----5-------5-----5--
---5-----5---5---5-----5---5
---------------2------------
-4-----0-------------2------
----------------------------
----------------------------

-----5-----5----
---5-----5---5-9
---------------9~play chord repeatedly
-4-----0-------7
----------------
----------------

Pre Chorus: Distortion, play 2x
-------------------
-------------------
------7-7----------
-7-7--7-7--2-2--2-2
-7-7--5-5--2-2--2-2
-5-5-------0-0--0-0

Chorus 2: Play whole part 2x
-------------------
-------------------
------7-7-------5-7
-7-7--7-7--2-2--5-7
-7-7--5-5--2-2--5-7
-5-5-------0-0-----

-------------------
-------------------
------7-7----------
-7-7--7-7--2-2--2-2
-7-7--5-5--2-2--2-2
-5-5-------0-0--0-0

-------------------
-------------------
------7-7----------
-7-7--7-7--2-2--4-4
-7-7--5-5--2-2--4-4
-5-5-------0-0--2-2

-------------------
-------------------
------7-7----------
-7-7--7-7--2-2--2-2
-7-7--5-5--2-2--2-2
-5-5-------0-0--0-0

Let it ring at the end and thats it.
Questions, comments, suggestions welcome,
email me at [email protected]
 
:: Ultimate Guitar Archive :: 
http://www.ultimate-guitar.com 

 


Текст, аккорды и табулатура для песни "Promise", исполняет "Eve 6".
Используемые в песне аккорды можно найти в разделе Как брать аккорды. Аккорды для шестиструнной гитары. Другие песни можно найти на нашем сайте, воспользовавшись алфавитным указателем вверху страницы.


 
Ошибка в тексте? Выделите ошибку и нажмите Ctrl+Enter