Artist Name: Evanescence
Tab Name: Whisper
 
h: hammer on
p: pull off
v: vibrato
t: trill
*: pinch harmonic
d: rock the wah pedal down
u: bring it back up
r: rock it back and forth fast

There is a tab for this song in Drop B (Drop D, 1 1/2 Steps Down, B-Gb-B-E-Ab-Db)
but it doesnt look or sound very correct to me, especially the solo. I took the time
to figure this out in Drop D, though I'm pretty sure most Evanescence songs are in
Drop Db. Enjoy.

------------------------------------------------------------------------------
------------------------------------------------------------------------------
------------------------------------------------------------------------------
------------------------------------------------------------------------------
----5---5h6p5---5---5h6p5---1-3*----5---5h6p5---5-8p7p5-5h7p3*----------------
--0---0-------0---0-------5-------0---0-------0-------------------------------
  Intro                                                                       

------------------------------------------------------------------------------
------------------------------------------------------------------------------
------------------------------------------------------------------------------
------------------------------------------------------------------------------
----5---5p6-3h5---5---5h6-3---5*----/5v--/7v--/10v--/8v-----------------------
--0---0---------0---0---------------------------------------------------------
 Verse 1 (with wah)      (Harmonic is played by one guitar, notes another)      

------------------------------------------------------------------------------
------------------------------------------------------------------------------
--2-------5-------------------------------------------------------------------
--0---3---5---3--5---2--------------------------------------------------------
--0---1---3---1--5---2--------------------------------------------------------
--0--------------5---2--------------------------------------------------------
  Chorus                                                                      

------------------------------------------------------------------------------
------------------------------------------------------------------------------
--2---------------------------------------------------------------------------
--0---------------------------------------------------------------------------
--0---------------------------------------------------------------------------
--0---------------------------------------------------------------------------
  Pre-Verse (Palm Muted)                                                     

------------------------------------------------------------------------------
------------------------------------------------------------------------------
------------------------------------------------------------------------------
------------------------------------------------------------------------------
----5---5h6p5---5---5h6p5---1-3*----5---5h6p5---5-8p7p5-5h7p3-----------------
--0---0-------0---0-------5-------0---0-------0-------------------------------
  Verse 2                                                                     

------------------------------------------------------------------------------
------------------------------------------------------------------------------
------------------------------------------------------------------------------
------------------------------------------------------------------------------
--/5v--/7v--/10v--/8v---------------------------------------------------------
------------------------------------------------------------------------------
  End of Verse 2 and Pre-Solo                                                 

------------------------------------------------------------------------------
------------------------------------------------------------------------------
------------------------------------------------------------------------------
--0/7v---7p5-7-8-8-8v--5v-5p3-5-7-7-7v--5p3--3-3-3--2-3-5-5-5-3-2-3-----------
------------------------------------------------------------------------------
------------------------------------------------------------------------------
  Solo (with wah)                                                             

------------------------------------------------------------------------------
------------------------------------------------------------------------------
------------------------------------------------------------------------------
--3p2-3p2-3p2-3p2-3------------5-5-5--3-2--7-7-7-8-7--10-10-10--8-7-----------
---------------------5-5-5-7-8------------------------------------------------
------------------------------------------------------------------------------
  d u d u d u d u d                                                           

------------------------------------------------------------------------------
------------------------------------------------------------------------------
------------------------------------------------------------------------------
--3-3-3--5-7--2-2-2--3-5--8t7-------------------------------------------------
------------------------------------------------------------------------------
------------------------------------------------------------------------------
                          r                            

Song Structure:

Intro
Verse 1
Chorus
Pre-Verse  
Verse 2  
Chorus 
Pre Solo
Solo
Chorus


Текст, аккорды и табулатура для песни "Whisper", исполняет "Evanescence".
Используемые в песне аккорды можно найти в разделе Как брать аккорды. Аккорды для шестиструнной гитары. Другие песни можно найти на нашем сайте, воспользовавшись алфавитным указателем вверху страницы.


 
Ошибка в тексте? Выделите ошибку и нажмите Ctrl+Enter