|--------------------------0---------------|
|-------------------0----------------------|
|----0---0-----0--------0----0-------------|
|---0---0-----0----0---0-------2-----------|
|--3---2---2-3----3---2----3---------------|
|------------------------------------------|

|--------------------------0---------------|
|-------------------0----------------------|
|----0---0-----0--------0----0-------------|
|---0---0-----0----0---0-------2-----------|
|--3---2---2-3----3---2----3---------------|
|------------------------------------------|

|--------------------------0---------------|
|-------------------0----------------------|
|----0---0-----0--------0----0-------------|
|---0---0-----0----0---0-------2-----------|
|--3---2---2-3----3---2----3---------------|
|------------------------------------------|


Текст, аккорды и табулатура для песни "Solitude", исполняет "Evanescence".
Используемые в песне аккорды можно найти в разделе Как брать аккорды. Аккорды для шестиструнной гитары. Другие песни можно найти на нашем сайте, воспользовавшись алфавитным указателем вверху страницы.


 
Ошибка в тексте? Выделите ошибку и нажмите Ctrl+Enter