Evanescence – October
Tuning: dropped D

|-----------------------------------------
|-----------------------------------------
|-----------------------------------------
|------6------4------6------4------4------
|----4------4------4------4------4---4--4-
|--4------4------4------4------4------4---

|---------------------------------------
|---------------------------------------
|---------------------------------------
|------6------4------6------4------6/8--
|----4------4------4------4------4------
|--3-----3-------3------3-------3-------

|-------------------------------------------------------------
|-------------------------------------------------------------
|------------------1----------3----------1--------------------
|------4-------------------------------------------43--------
|----1---------1----------1----------1--------1---------------
|--1--------1----------1----------1---------1-----------------

|--------------------------------------------------------------
|--------------------------------------------------------------
|---------1-------4--------6------4-------4-------4------------
|------4--------4-------4-------4-------4-------4----4----4----
|---2--------2-------2--------2-------2------2----------2------
|--------------------------------------------------------------
Small pause and then riff changes.

|--------------------------------------------------------
|--------------------------------------------------------
|--------------------------------------------------------
|-------4-------4------1-------1h4p1----4----------------
|-----4-------4------1-------1---------1-----------------
|---4-------3------1-------1-----------------------------

|----------------------------------------------------------------------
|----------------------------------------------------------------------
|----------------------------------------------------------------------
|------4------4------4-------4------4------4-------1--------1h4p1----4-
|----4------4------4-------4------4------4-------1--------1---------1--
|--4------3------4-------6------4------3-------1--------1--------------

Then finger picking changes to stumming….
This pattern repeats a few times and ends with the strumming
I couldnt figure out the chord patters, if you could, please email me at
[email protected]


Текст, аккорды и табулатура для песни "October", исполняет "Evanescence".
Используемые в песне аккорды можно найти в разделе Как брать аккорды. Аккорды для шестиструнной гитары. Другие песни можно найти на нашем сайте, воспользовавшись алфавитным указателем вверху страницы.


 
Ошибка в тексте? Выделите ошибку и нажмите Ctrl+Enter