Artist- Evanescence
Album- Fallen
Song- My Last Breath
Track- 10

The other tab of this song on this site is tabbed on a 7 string and its a bit
off.  The band use 6 string guitars on every song.  Any questions or comments on
this tab or any of my other tabs email is [email protected] and AIM name is
Uncfan3829.  Enjoy.

Drop D Tuning (DADGBe)


Intro

(Guitar comes in after electronic at 00:10)

E----------------------------------------------------------------
B----------------------------------------------------------------
G----3h5p3-2-----------------------------------------------------
D----------------5-------------1------------3-------------------- x2
A----------------5-------------1------------3--------------------
D----------------5-------------1------------3--------------------

Verses

No Guitar

Chorus

E----------------------------------------------------------------
B----------------------------------------------------------------
G-----3h5p3-2----------------------------------------------------
D------------------5-------1--------3---------------------------- x2
A------------------5-------1--------3----------------------------
D------------------5-------1--------3----------------------------

E----------------------------------------------------------------
B----------------------------------------------------------------
G--------------------------------------3h5p3--2------------------
D--------5---------1--------3---------------------5----1----3----
A--------5---------1--------3---------------------5----1----3----
D--------5---------1--------3---------------------5----1----3----

Interlude

E----------------------------------------------------------------
B----------------------------------------------------------------
G----------------------------------------------------------------
D--0000000000000000----------------------------------------------
A--0000000000000000----------------------------------------------
D--0000000000000000----------------------------------------------
 PM.................................

E----------------------------------------------------------------
B----------------------------------------------------------------
G----------------------------------------------------------------
D---00---00----0----00---1----00---3-----------------------------
A---00---00----0----00---1----00---3----------------------------- x4
D---00---00----0----00---1----00---3-----------------------------
 PM      ..         ..        ..


Then go back to play Chorus until the song ends.  And thats it


Текст, аккорды и табулатура для песни "My Last Breath", исполняет "Evanescence".
Используемые в песне аккорды можно найти в разделе Как брать аккорды. Аккорды для шестиструнной гитары. Другие песни можно найти на нашем сайте, воспользовавшись алфавитным указателем вверху страницы.


 
Ошибка в тексте? Выделите ошибку и нажмите Ctrl+Enter