My Immortal
Evanescence
Tabbed by: Mariano Arnaiz
Anything to: [email protected]


Piano intro

  A                   Cm#
e----------5-------------------4--------
B------5-------5-----------5-------5----
G----6---6---6---6-------6---6---6---6—-  x2
D---------------------6-----------------
A-7-------------------------------------
E---------------------------------------

Verse

Main riff

  A                   Cm#
e----------5-------------------4--------
B------5-------5-----------5-------5----
G----6---6---6---6-------6---6---6---6—-   x4
D---------------------6-----------------
A-7-------------------------------------
E-5-------------------------------------

Pre-Chorus

You can play it picking some notes to create the piano effect

F#m                         C#m
   These wounds won't seem to heal
F#m                     C#m
    this pain is just too real
F#m                        E             E*
there's just too much that time cannot erase

Chorus

You can play it picking some notes to create the piano effect

F#m      D         E         C#m
When you cried I'd wipe away all of your tears
F#m        D          E          C#m
When you'd scream I'd fight away all of your fears
F#m      D         E            C#m
And I've held your hand through all of these years
F#m        D     E                    C#m    Main riff x2
but you still have all of me

Verse
Pre-Chorus
Chorus



Final Interlude

You can play it picking some notes to create the piano effect

D             F#m              E                 D
I've tried so hard to tell myself that you're gone
F#m                     C#m
but though you're still with me
D             E           F#m   D   E   C#m
I've been alone all along

Chorus
 
    
If you want you can play the main riff like this (for beginners) 

  A                   Cm#
e----------0-------------------4--------
B------2-------2-----------5-------5----
G----2---2---2---2-------6---6---6---6—-   x4
D---------------------6-----------------
A-0-------------------------------------
E---------------------------------------

     EADGEe
  A: 577655  or  -02220
Cm#: x46654
Fm#: 244222
  D: -00232
  E: 022100
 E*: 022120


Текст, аккорды и табулатура для песни "My Immortal", исполняет "Evanescence".
Используемые в песне аккорды можно найти в разделе Как брать аккорды. Аккорды для шестиструнной гитары. Другие песни можно найти на нашем сайте, воспользовавшись алфавитным указателем вверху страницы.


 
Ошибка в тексте? Выделите ошибку и нажмите Ctrl+Enter