Title: Imaginary 
   Author: Evanescence
    Album: Fallen
   Tabber: John
      Key: E
   Tuning: Standard: EADGBe


Intro (with Dist.)

   +   +   +   +     +   +   +   +     +   +   +   +      
e :-----------------|-----------------|-----------------|
B :-----------------|-----------------|-----------------|
G :9-9-9-9-9-9-9-9-9|4-5-5-5-5-5-5-5--|----7-7-7------- |
D :9-9-9-9-9-9-9-9-9|4-5-5-5-5-5-5-5--|----7-7-7--------|
A :7-7-7-7-7-7-7-7-7|2-3-3-3-3-3-3-3--|----5-5-5--------|       
E :7-7-7-7-7-7-7-7-7|2-3-3-3-3-3-3-3--|----5-5-5--------|


   +   +   +   +     +   +   +   +     +   +   +   +       
e :-----------------|-----------------|-----------------|
B :-----------------|-----------------|-----------------|
G :9-9-9-9-9-9-9-9-9|4-5-5-5-5-5-5-5--|-----------------|
D :9-9-9-9-9-9-9-9-9|4-5-5-5-5-5-5-5--|-----------------|
A :7-7-7-7-7-7-7-7-7|2-3-3-3-3-3-3-3--|----9^9----------|
E :7-7-7-7-7-7-7-7-7|2-3-3-3-3-3-3-3--|-----------------|



Verse 1 (Clean) play 6x


   +   +   +   +     +   +   +   +            
e :7-7-7-7-7-7-7-7-7|5-5-5-5-5-5-5-5-5|
B :8-8-8-8-8-8-8-8-8|5-5-5-5-5-5-5-5-5|
G :9-9-9-9-9-9-9-9-9|7-7-7-7-7-7-7-7-7| 
D :9-9-9-9-9-9-9-9-9|7-7-7-7-7-7-7-7-7|
A :7-7-7-7-7-7-7-7-7|5-5-5-5-5-5-5-5-5|
E :7-7-7-7-7-7-7-7-7|5-5-5-5-5-5-5-5-5|



Chorus (Dist.)



   +   +   +   +     +   +   +   +     +   +   +   +     +   +   +   +  
e :-----------------|-----------------|-----------------|-----------------|
B :-----------------|-----------------|-----------------|-----------------|
G :9-9-9-9-9-9-9-9-9|5-5-5-5-5-5------|-7-7-7-----------|-----------------|
D :9-9-9-9-9-9-9-9-9|5-5-5-5-5-5------|-7-7-7-----------|-----------------|
A :7-7-7-7-7-7-7-7-7|3-3-3-3-3-3------|-5-5-5-----------|-----------------|
E :7-7-7-7-7-7-7-7-7|3-3-3-3-3-3------|-5-5-5-----------|-----------------|


e :-----------------|-----------------|-----------------|-----------------|
B :-----------------|-----------------|-----------------|-----------------|
G :9-9-9-9-9-9-9-9-9|5-5-5-5-5-5------|-----------------|-----------------|
D :9-9-9-9-9-9-9-9-9|5-5-5-5-5-5------|-----------------|-----------------|
A :7-7-7-7-7-7-7-7-7|3-3-3-3-3-3------|--7-5-3-2--------|-----------------|
E :7-7-7-7-7-7-7-7-7|3-3-3-3-3-3------|-----------------|-----------------|

e :-----------------|-----------------|-----------------|-----------------|
B :-----------------|-----------------|-----------------|-----------------|
G :9-9-9-9-9-9-9-9-9|5-5-5-5-5-5------|-7-7-7-----------|-----------------|
D :9-9-9-9-9-9-9-9-9|5-5-5-5-5-5------|-7-7-7-----------|-----------------|
A :7-7-7-7-7-7-7-7-7|3-3-3-3-3-3------|-5-5-5-----------|-----------------|
E :7-7-7-7-7-7-7-7-7|3-3-3-3-3-3------|-5-5-5-----------|-----------------|

e :-----------------|-----------------|-----------------|-----------------|
B :-----------------|-----------------|-----------------|-----------------|
G :9-9-9-9-9-9-9-9-9|5-5-5-5-5-5------|-7-7-7---9-------|-----------------|
D :9-9-9-9-9-9-9-9-9|5-5-5-5-5-5------|-7-7-7---9-------|-----------------|
A :7-7-7-7-7-7-7-7-7|3-3-3-3-3-3------|-5-5-5---7-------|-----------------|
E :7-7-7-7-7-7-7-7-7|3-3-3-3-3-3------|-5-5-5---7-------|-----------------|
|



Verse 2 (Clean) play 6x


   +   +   +   +     +   +   +   +            
e :7-7-7-7-7-7-7-7-7|5-5-5-5-5-5-5-5-5|
B :8-8-8-8-8-8-8-8-8|5-5-5-5-5-5-5-5-5|
G :9-9-9-9-9-9-9-9-9|7-7-7-7-7-7-7-7-7| 
D :9-9-9-9-9-9-9-9-9|7-7-7-7-7-7-7-7-7|
A :7-7-7-7-7-7-7-7-7|5-5-5-5-5-5-5-5-5|
E :7-7-7-7-7-7-7-7-7|5-5-5-5-5-5-5-5-5|



Play Chorus Again and After Chorus play this:


   +   +   +   +     +   +   +   +     +   +   +   +     +   +   +   +  
e :-----------------|-----------------|
B :-----------------|-----------------|
G :4-4-4-4-4-4------|9-9-7-7-5-5-4-4--|
D :4-4-4-4-4-4------|9-9-7-7-5-5-4-4--|
A :2-2-2-2-2-2------|7-7-5-5-3-3-2-2--|
E :2-2-2-2-2-2------|-----------------|




Guitar Break (Dist.)


   +   +   +   +       
e :-----------------|
B :-----------------|
G :--------9--------|
D :--------9--------|
A :--------7-(pm)---|
E :--------7--------|

   
e :-----------------------------------------------------------------------|
B :-----------------------------------------------------------------------|
G :9-9-9-11-12-14-14-14-12-11--9-9-9-11-12-5-5-5-4-7----------------------|
D :9-9-9-11-12-14-14-14-12-11--9-9-9-11-12-5-5-5-4-7----------------------| 2X
A :7-7-7-9--10-12-12-12-10-9---7-7-7-9--10-3-3-3-2-5----------------------|
E :-----------------------------------------------------------------------|

    
e :-----------------|----------|
B :-----------------|----------|
G :--------4--------|---7-7-7--|
D :--------4--------|---7-7-7--|
A :--------2--------|---5-5-5--|
E :--------2--------|---5-5-5--|




Chorus (Dist.)

   +   +   +   +     +   +   +   +     +   +   +   +     +   +   +   +  
e :-----------------|-----------------|-----------------|-----------------|
B :-----------------|-----------------|-----------------|-----------------|
G :9-9-9-9-9-9-9-9-9|5-5-5-5-5-5------|-7-7-7-----------|-----------------|
D :9-9-9-9-9-9-9-9-9|5-5-5-5-5-5------|-7-7-7-----------|-----------------|
A :7-7-7-7-7-7-7-7-7|3-3-3-3-3-3------|-5-5-5-----------|-----------------|
E :7-7-7-7-7-7-7-7-7|3-3-3-3-3-3------|-5-5-5-----------|-----------------|


e :-----------------|-----------------|-----------------|-----------------|
B :-----------------|-----------------|-----------------|-----------------|
G :9-9-9-9-9-9-9-9-9|5-5-5-5-5-5------|-----------------|-----------------|
D :9-9-9-9-9-9-9-9-9|5-5-5-5-5-5------|-----------------|-----------------|
A :7-7-7-7-7-7-7-7-7|3-3-3-3-3-3------|----9^9----------|-----------------|
E :7-7-7-7-7-7-7-7-7|3-3-3-3-3-3------|-----------------|-----------------|

e :-----------------|-----------------|-----------------|-----------------|
B :-----------------|-----------------|-----------------|-----------------|
G :9-9-9-9-9-9-9-9-9|5-5-5-5-5-5------|-7-7-7-----------|-----------------|
D :9-9-9-9-9-9-9-9-9|5-5-5-5-5-5------|-7-7-7-----------|-----------------|
A :7-7-7-7-7-7-7-7-7|3-3-3-3-3-3------|-5-5-5-----------|-----------------|
E :7-7-7-7-7-7-7-7-7|3-3-3-3-3-3------|-5-5-5-----------|-----------------|

e :-----------------|-----------------|-----------------|-----------------|
B :-----------------|-----------------|-----------------|-----------------|
G :9-9-9-9-9-9-9-9-9|5-5-5-5-5-5------|-7-7-7-----------|-----------------|
D :9-9-9-9-9-9-9-9-9|5-5-5-5-5-5------|-7-7-7-----------|-----------------|
A :7-7-7-7-7-7-7-7-7|3-3-3-3-3-3------|-5-5-5-----------|-----------------|
E :7-7-7-7-7-7-7-7-7|3-3-3-3-3-3------|-5-5-5-----------|-----------------|



Outro (Dist.)


   +   +   +   +     +   +   +   +     +   +   +   +      
e :-----------------|-----------------|-----------------|
B :-----------------|-----------------|-----------------|
G :9-9-9-9-9-9-9-9-9|4-5-5-5-5-5-5-5--|----7-7-7------- |
D :9-9-9-9-9-9-9-9-9|4-5-5-5-5-5-5-5--|----7-7-7--------|
A :7-7-7-7-7-7-7-7-7|2-3-3-3-3-3-3-3--|----5-5-5--------|       
E :7-7-7-7-7-7-7-7-7|2-3-3-3-3-3-3-3--|----5-5-5--------|


   +   +   +   +     +   +   +   +     +   +   +   +       
e :-----------------|-----------------|-----------------|
B :-----------------|-----------------|-----------------|
G :9-9-9-9-9-9-9-9-9|4-5-5-5-5-5-5-5--|-----------------|
D :9-9-9-9-9-9-9-9-9|4-5-5-5-5-5-5-5--|-----------------|
A :7-7-7-7-7-7-7-7-7|2-3-3-3-3-3-3-3--|----9^9----------|
E :7-7-7-7-7-7-7-7-7|2-3-3-3-3-3-3-3--|-----------------|


e :-----------------|-----------------|-----------------|
B :-----------------|-----------------|-----------------|
G :9-9-9-9-9-9-9-9-9|4-5-5-5-5-5-5-5--|----7-7-7------- |
D :9-9-9-9-9-9-9-9-9|4-5-5-5-5-5-5-5--|----7-7-7--------|
A :7-7-7-7-7-7-7-7-7|2-3-3-3-3-3-3-3--|----5-5-5--------|       
E :7-7-7-7-7-7-7-7-7|2-3-3-3-3-3-3-3--|----5-5-5--------|


e :-----------------|-----------------|-----------------|
B :-----------------|-----------------|-----------------|
G :9-9-9-9-9-9-9-9-9|4-5-5-5-5-5-5-5--|----7-7-7--------| 
D :9-9-9-9-9-9-9-9-9|4-5-5-5-5-5-5-5--|----7-7-7--------|
A :7-7-7-7-7-7-7-7-7|2-3-3-3-3-3-3-3--|----5-5-5--------|       
E :7-7-7-7-7-7-7-7-7|2-3-3-3-3-3-3-3--|----5-5-5--------|



     

     
e :-----------------|
B :-----------------|
G :-------9---------|
D :-------9---------|Let it Ring~~~~~
A :-------7---------|
E :-------7---------|


That's it, I hope you all like it,
and if I have any errors please try
to understand that this is my very first
time making a `TAB`. Feel free to correct
it ok, have fun!!!
   Enjoy!!!!!!!!!!!!!!!!

any questions write me at: [email protected]


Текст, аккорды и табулатура для песни "Imaginary", исполняет "Evanescence".
Используемые в песне аккорды можно найти в разделе Как брать аккорды. Аккорды для шестиструнной гитары. Другие песни можно найти на нашем сайте, воспользовавшись алфавитным указателем вверху страницы.


 
Ошибка в тексте? Выделите ошибку и нажмите Ctrl+Enter