Band: Evanescence
Song: Everybody's Fool
Tabber: Eggy331
Tuning: DADGBE
Effects: Distortion throughout entire song

This is my first posted tab, so make sure you send all questions and comments
to [email protected]

Note: This isn't exactly how the song is played, but I like to get creative in
some spots, like the slide from the 7th fret in the intro

Intro/ChorusA
E|-------|-----------------------------------------------------------------|
B|-intro-|-----------------------------------------------------------------|
G|-only!-|-----------------------------------------------------------------|
D|-0-0-3-|-0-0-0-0-0--0-0-7h8p7-10-10-10-10-10-10--7/----------------------|
A|-0-0-3-|-0-0-0-0-0--0-0-7h8p7-10-10-10-10-10-10--7/----------------------|
D|-0-0-3-|-0-0-0-0-0--0-0-7h8p7-10-10-10-10-10-10--7/----------------------|
pm ...                ...


Verse
E|-------------------------------------------------------------------------|
B|-------------------------------------------------------------------------|
G|-------------------------------------------------------------------------|
D|-00-00-0h10---00-00-000h10--00-00-0h10--8-5-7/-00-3----------------------|
A|-00-00-0h10---00-00-000h10--00-00-0h10--8-5-7/-00-3----------------------|
D|-00-00-0h10---00-00-000h10--00-00-0h10--8-5-7/-00-3----------------------|
pm                    ..                         ..


ChorusB (after ChorusA x2)
E|-------------------------------------------------------------------------|
B|-------------------------------------------------------------------------|
G|-------------------------------------------------------------------------|
D|-888888887555587--0-000-0-0-0-10101010--0-000-0-0-0-10101010-------------|
A|-888888887555587--0-000-0-0-0-10101010--0-000-0-0-0-10101010-------------|
D|-888888887555587--0-000-0-0-0-10101010--0-000-0-0-0-10101010-------------|
pm                    ...                   ...


Pre-Chorus
E|-------------------------------------------------------------------------|
B|-------------------------------------------------------------------------|
G|-------------------------------------------------------------------------|
D|--/12-10/15-14---12-10/15-17---------------------------------------------|
A|-------------------------------------------------------------------------|
D|-------------------------------------------------------------------------|

Modified Chorus
E|-------------------------------------------------------------------------|
B|-------------(10's)------------------------------------------------------|
G|-------------------------------------------------------------------------|
D|-0-7h8p7-10101010101010-7-888888-7h8-5555555-7-8/10-8888888-7-10-10-7-7--|
A|-0-7h8p7-10101010101010-7-888888-7h8-5555555-7-8/10-8888888-7-10-10-7-7--|
D|-0-7h8p7-10101010101010-7-888888-7h8-5555555-7-8/10-8888888-7-10-10-7-7--|

End
E|-------------------------------------------------------------------------|
B|-------------------------------------------------------------------------|
G|-------------------------------------------------------------------------|
D|-0-000-00----------------------------------------------------------------|
A|-0-000-00----------------------------------------------------------------|
D|-0-000-00----------------------------------------------------------------|
pm   ...


Order:
Intro x2
Verse x2
ChorusA x2
ChorusB
Verse x2
Pre-Chorus
ChorusA x2
ChorusB
[QUIET PART]
Modified Chorus
ChorusA x2
ChorusB
ChorusA x2
ChorusB
ChorusA x2
ChorusB
End

Once again, all questions, comments, and suggestions to [email protected]


Текст, аккорды и табулатура для песни "Everybodys Fool", исполняет "Evanescence".
Используемые в песне аккорды можно найти в разделе Как брать аккорды. Аккорды для шестиструнной гитары. Другие песни можно найти на нашем сайте, воспользовавшись алфавитным указателем вверху страницы.


 
Ошибка в тексте? Выделите ошибку и нажмите Ctrl+Enter