вступление, куплеты:  

  Fm - palm muting

1:-1--
2:-1--
3:-1--
4:-3--
5:-3--
6:-1--



припев:

  Fm G# D#m Bb G#

1:-1-4--6---6---4---
2:-1-4--6---6---4---
3:-1-5--8---6---4---
4:-3-6--8---8---6---
5:-3-6--6---8---6---
6:-1-4--6---6---4---



после 2ого припева ( 1.58 )

C#m D#m Fm (рубить акккорд с палм мутингм как в куплете)

после второго раза - идет такое:

Fm G# Am Hm


потом вокалистка начинает орать: "frozen inside.." и идет

   Hm Am G# A#m - G# Am Hm (Надеюсь поймете эту фишку, играется быстро)

1:-13-11-10-12----10-11-13---
2:-13-11-10-12----10-11-13---
3:-15-13-12-14----12-13-15---
4:-15-13-12-14----12-13-15---
5:-13-11-10-12----10-11-13---
6:-13-11-10-12----10-11-13---


   Hm Am G# Cm...

1:-13-11-10-15--
2:-13-11-10-15--
3:-15-13-12-17--
4:-15-13-12-17--
5:-13-11-10-15--
6:-13-11-10-15--



когда начинает вокалист читать:

   Fm - p.m , потом когда вокалистка - Am Hm   x2

1:--8----------------------------------11-13----
2:--8----------------------------------11-13----
3:--10---------------------------------13-15----
4:--10---------------------------------13-15----
5:--8----------------------------------11-13----
6:--8----------------------------------11-13----


припев

   Fm G# D#m Bb G#,  C#m D#m Fm  ( Fm G# Am Hm ) C#m D#m Fm

1:-1--4--6---6--4----4--6---8------8--10-11-13---4---6----8----
2:-1--4--6---6--4----4--6---8------8--10-11-13---4---6----8----
3:-1--5--8---6--5----6--8---10-----10-12-13-15---6---8----10---
4:-3--6--8---8--6----6--8---10-----10-12-13-15---6---8----10---
5:-3--6--6---8--6----4--6---8------8--10-11-13---4---6----8----
6:-1--4--6---6--4----4--6---8------8--10-11-13---4---6----8----



how can you see into my eyes like open doors 
leading you down into my core 
where I-ve become so numb without a soul my spirit sleeping somewhere cold 
until you find it there and lead it back home 

(Wake me up) 
Wake me up inside 
(I can-t wake up) 
Wake me up inside 
(Save me) 
call my name and save me from the dark 
(Wake me up) 
bid my blood to run 
(I can-t wake up) 
before I come undone 
(Save me) 
save me from the nothing I-ve become 

now that I know what I-m without 
you can´t just leave me 
breathe into me and make me real 
bring me to life 

(Wake me up) 
Wake me up inside 
(I can-t wake up) 
Wake me up inside 
(Save me) 
call my name and save me from the dark 
(Wake me up) 
bid my blood to run 
(I can-t wake up) 
before I come undone 
(Save me) 
save me from the nothing I-ve become 

frozen inside without your touch without your love darling only you are the life among 
the 
dead 

all this time I can´t believe I couldn´t see 
kept in the dark but you were there in front of me 
I-ve been sleeping a thousand years it seems 
got to open my eyes to everything 
without a thought without a voice without a soul 
don´t let me die here 
there must be something more 
bring me to life 

(Wake me up) 
Wake me up inside 
(I can-t wake up) 
Wake me up inside 
(Save me) 
call my name and save me from the dark 
(Wake me up) 
bid my blood to run 
(I can-t wake up) 
before I come undone 
(Save me) 
save me from the nothing I-ve become 

(Bring me to life) 
I-ve been living a lie, there-s nothing inside 
(Bring me to life)


Текст, аккорды и табулатура для песни "Bring Me To Life", исполняет "Evanescence".
Используемые в песне аккорды можно найти в разделе Как брать аккорды. Аккорды для шестиструнной гитары. Другие песни можно найти на нашем сайте, воспользовавшись алфавитным указателем вверху страницы.


 
Ошибка в тексте? Выделите ошибку и нажмите Ctrl+Enter