evanescence - BMTL
standard tuning - EADGBE

*= natural harmonic
:= palm mute
/= slide

  VERSE
  ------------------------------------------  4 TIMES
  ------------------------------------------
  ------------------------------------------
  ---22-22-22-22----22-22-22-22-------------
  ---22-22-22-22----22-22-22-22-------------
  ---00-00-00-00----00-00-00-00--0-0-5*-----

  CHOURS             D     E
  -------------------2-----0---------2 TIMES
  -------------------3-----0---------
  -------------------2-----1---------
  ----2------5-----0-0-----2---------
  ----2------5-------------2---------
  --0-0----3-3-----------0-0---------

  BRIDGE PART 1
  ---------------------------------------------------------
  ---------------------------------------------------------
  ----5---------7------------------------------------------
  ----5---------7---------22-22-22-22---22-22-22-22-------- 
  ----3---------5---------22-22-22-22---22-22-22-22--------
  -------0-0-0----0-0-0---00-00-00-00---00-00-00-00-0-0-5*-
         : : :    : : : 

  ----------------------------------------------
  ----------------------------------------------
  ---5----------7-------------------------------
  ---5----------7-------22-22-22-22-------------
  ---3----------5-------22-22-22-22-------------
  ------0-0-0-----0-0-0-00-00-00-00-------------
        : : :     : : : 
 
  BRIDGE PART 2
  -----------------------------------
  -----------------------------------
  -----------4--2------------4-2----4
  --2--4--5--4--2--5-4-2-4-5-4-2--5-4
  --2--4--5--2--0--5-4-2-4-5-2-0--5-2
  --0--2--3--------3-2-0-2-3------3--


TABBED BY : AWILLIAMS


Текст, аккорды и табулатура для песни "Bring Me To Life", исполняет "Evanescence".
Используемые в песне аккорды можно найти в разделе Как брать аккорды. Аккорды для шестиструнной гитары. Другие песни можно найти на нашем сайте, воспользовавшись алфавитным указателем вверху страницы.


 
Ошибка в тексте? Выделите ошибку и нажмите Ctrl+Enter