Artist:Melissa Etheridge
Song:I'm Not The Only One
Album:Yes I Am
Tabbed By:Gary Hricewich
E-mail:[email protected]

                                                            
 Bass Intro       Verse
G---------------|------------------------------------------|
D---5-3---------|------------------------------------------|
A-------5-3-----|------------------------------------------|
E-----------5-3-|-3--3-3--3-3--3-3--3-3--3-3--3-3--3-0-1-2-|
                                                            
                                                          
 Bridge [Go On And Hold Her]                         2x
G---|-----------------------|--------------------------|
D---|*----------------------|-----------7-5---7-5-----*|
A---|*----------------0-3-4-|-5--5-5--5-----7-----7---*|
E---|--5--5-5--5-5--5-------|--------------------------|
                                                          
                                                                     
 Chorus [But I'm The Only One]                                 2x
G---|-------------------------------------------------------------|
D---|*-----------------------------------------------------------*|
A---|*-----------------------------------------------------------*|
E---|--3--3-3--3-3--3-3--3--1--1-1--1-1--1-1--1--0-0-0--0-0-0--0--|
                                                                     
                                                                         
 [Its Only Fear] 
G-----------------------------------------------------------------------|
D-----------------------------------------------------------------------|
A--------------------3--3-3-3-3-3-3-3------------------3--3-3-3-3-3-3-3-|
E---5--5-5-5-5-5-5-5------------------1--1-1-1-1-1-1-1------------------|
                                                                         
                                             
 [I'm The Only One] 
G-------------------------------------------|
D-------------------------------------------|
A-------------------------------------------|
E---3--3-3--3-3--3-3--3-3--3-3--3-3--3-3--3-|
                                             
                                                                              
     Lead                                                              2x
G---|----------------------------------------------------------------------|
D---|*--------------------------------------------------------------------*|
A---|*--------------------------------------------------------------------*|
E---|--1--1-1-1-1-1-1-1-1-1-1-1-1-1-1-1--3--3-3-3-3-3-3-3-3-3-3-3-3-3-3-3--|


Текст, аккорды и табулатура для песни "Im Not The Only One", исполняет "Etheridge Melissa".
Используемые в песне аккорды можно найти в разделе Как брать аккорды. Аккорды для шестиструнной гитары. Другие песни можно найти на нашем сайте, воспользовавшись алфавитным указателем вверху страницы.


 
Ошибка в тексте? Выделите ошибку и нажмите Ctrl+Enter