Huwag mo nang itanong by Eraserheads

Chords
Stanza: E-A(4x) F#m-G#m-A-B
Chorus: E-A(3x) F#m-B
Ending Chords: F#-B(3x) G#m-C#

During Chorus:
-------
-5-4-5-
-------
-------
-------
-------

During Chorus: (Ending)
-2-1-2-
-------
-------
-------
-------
-------

Instrumental: (Lead)
-12-12-12s11-11-9-7--7-7-7s5-5-4-0-
-----------------------------------
-----------------------------------
-----------------------------------
-----------------------------------
-----------------------------------

-12-12-12s11-11-9-7--7-7-7-7-7-9-9-12-
--------------------------------------
--------------------------------------
--------------------------------------
--------------------------------------
--------------------------------------

Instrumental: (Bass)
------------------------------------
------------------------------------
------------------------------------
------------------------------------
---7-6-7--7-7-7-4-7-7s14-12-11h12-7-
-7----------------------------------

--------------------------------------
--------------------------------------
--------------------------------------
--------------------------------------
---7-6-7s9--7-7-7-4-7-7s14-12-11h12-7-
-7------------------------------------

Ending:
---1---2---1---2s4-2-1-
-2---2---2---2---------
-----------------------
-----------------------
-----------------------
-----------------------

---2---4---6---2s4-2-1-
-4---4---4---4---------
-----------------------
-----------------------
-----------------------
-----------------------

-END-

[email protected]


Текст, аккорды и табулатура для песни "Huwag Mo Nang Itanong", исполняет "Eraserheads".
Используемые в песне аккорды можно найти в разделе Как брать аккорды. Аккорды для шестиструнной гитары. Другие песни можно найти на нашем сайте, воспользовавшись алфавитным указателем вверху страницы.


Слушать онлайн Huwag Mo Nang Itanong


EraserheadsHuwag Mo Nang Itanong на Яндекс.Музыке


 
Ошибка в тексте? Выделите ошибку и нажмите Ctrl+Enter