Band: Eraserheads
Song Title : fill her
  Tabbed by: Christian Bernil 17 yrs. old

ito ang unang tabs kong ginawa and i'm very sure with this! walang paltos ito! the best! ito ang Orig!

     you'll need a capo on 4th fret and  skillfull fingers for plucking  

intro:
--------------5-----------|-------------3-----------|                 
--5---5---5-------5---5---|-3---3---3-------3---3---|
----0-------0---0-------0-|---0-------0---0-------0-|
--------------------------|-------------------------|
--3-----3-----------3-----|-2-----2-----------2-----|
--------------------------|-------------------------|

--------------2-----------|--------------------|
--1---1---1-------1---1---|--0---0---0---------|
----0-------0---0-------0-|----0-------0-1---3-|
--------------------------|----------------0---|
--0-----0-----------0-----|--2-----2-----------|
--------------------------|--------------------|

--------------5-----------|-------------3-----------|                  
--5---5---5-------5---5---|-3---3---3-------3---3---|
----0-------0---0-------0-|---0-------0---0-------0-|
--------------------------|-------------------------|
--3-----3-----------3-----|-2-----2-----------2-----|
--------------------------|-------------------------|

--------------3-2h3-3---------------|
--1---1---1-------------0---0-------|
----0-------0---------0-------0-1-3-|
----------------0----------------0--|
--0-----0-----------2-----2---------|
------------------------------------|


verse:
--------------------------|-------------------------|                  
--5---5---5---5---5---5---|-3---3---3---3---3---3---|
----0-------0---0-------0-|---0-------0---0-------0-|
--------------------------|-------------------------|
--3-----3-----3-----3-----|-2-----2-----2-----2-----|
--------------------------|-------------------------|
you don't need to leave it seems a bit naive
no need to disagree or seek my history 
your staring at my soul my sanity you stole
but then i knew all along that  anything could go wrong 
--------------------------|--------------------|
--1---1---1---1---1---1---|--0---0---0---------|
----0-------0---0-------0-|----0-------0-1---3-|
--------------------------|----------------0---|
--0-----0-----0-----0-----|--2-----2-----------|
--------------------------|--------------------|


chorus:
--------------5-----------|-------------3-----------|                  
--5---5---5-------5---5---|-3---3---3-------3---3---|
----0-------0---0-------0-|---0-------0---0-------0-|
--------------------------|-------------------------|
--3-----3-----------3-----|-2-----2-----------2-----|
--------------------------|-------------------------|
though i can't see you, i can't feel you i'm so glad you open my door
when i get near all my fears disappear and i wont be alone anymore
uhmmmm uhmmm uhm uhm hummm......
 
--------------2-----------|--------------------|
--1---1---1-------1---1---|--0---0---0---------|
----0-------0---0-------0-|----0-------0-1---3-|
--------------------------|----------------0---|
--0-----0-----------0-----|--2-----2-----------|
--------------------------|--------------------|

ending:
--------------5-----------|-------------3-----------|                  
--5---5---5-------5---5---|-3---3---3-------3---3---|
----0-------0---0-------0-|---0-------0---0-------0-|
--------------------------|-------------------------|
--3-----3-----------3-----|-2-----2-----------2-----|
--------------------------|-------------------------|

uhmmmm uhmmm uhm uhm hummm.......

--------------3-2h3--3----------|
--1---1---1----------0----------|
----0-------0--------0----------|
----------------0----0----------|
--0-----0------------2----------|
--------------------------------|

        oi! kung may reklamo o suggestions kayo just e-mail na lang at
                        => [email protected] 


Текст, аккорды и табулатура для песни "Fill Her", исполняет "Eraserheads".
Используемые в песне аккорды можно найти в разделе Как брать аккорды. Аккорды для шестиструнной гитары. Другие песни можно найти на нашем сайте, воспользовавшись алфавитным указателем вверху страницы.


Слушать онлайн Fill Her


EraserheadsFill Her на Яндекс.Музыке


 
Ошибка в тексте? Выделите ошибку и нажмите Ctrl+Enter