-----------------------------------------------------------------------------
			     KAHAN HAY TU - Entity paradigm
-----------------------------------------------------------------------------
Tabbed by: Uzair
Email: [email protected]

Tuning: Drop C


Intro :

(distorted and muted)
D---------------------------------------------------
A---------------------------------------------------
F---------------------------------------------------
C--2--2-2--2-2--2-2--2------------------------------
G--2--2-2--2-2--2-2--2------------------------------
C--2--2-2--2-2--2-2--2------------------------------ repeat a bunch of times

then the main riff goes like

D---------------------------------------------------
A---------------------------------------------------
F---------------------------------------------------
C-0--2--2--2--0--2--2--5------0--2--2--0--2--2--2---
G-0--2--2--2--0--2--2--5------0--2--2--0--2--2--2---
C-0--2--2--2--0--2--2--5------0--2--2--0--2--2--2---


D---------------------------------------------------
A---------------------------------------------------
F---------------------------------------------------
C-0--2--2--2--0--2--2--5------0--2--2--0--5--0--5---
G-0--2--2--2--0--2--2--5------0--2--2--0--5--0--5---
C-0--2--2--2--0--2--2--5------0--2--2--0--5--0--5---

Verse:

(clean)
D---------------------------------------------------
A---------------------------------------------------
F---------------------------------------------------
C--2-----5-----0---------0--------------------------
G--2-----5-----0-------0---0------------------------
C--2-----5-----0-----0------------------------------ x3

(distorted with palm muting)
D---------------------------------------------------
A---------------------------------------------------
F---------------------------------------------------
C--2-2-2-2-2-2-2-2--10-10-10-10-10-10-10-10--5-5-5-5-5-5-5-5--
G--2-2-2-2-2-2-2-2--10-10-10-10-10-10-10-10--5-5-5-5-5-5-5-5--
C--2-2-2-2-2-2-2-2--10-10-10-10-10-10-10-10--5-5-5-5-5-5-5-5--

Prechorus

D---------------------------------------------------
A---------------------------------------------------
F---------------------------------------------------
C-7-7-7-7-7-7-7-7--9-9-9-9-9-9-9-9--10-10-10-10-10-10-10-10--9-9-9-9-9-9-9-9-
G-7-7-7-7-7-7-7-7--9-9-9-9-9-9-9-9--10-10-10-10-10-10-10-10--9-9-9-9-9-9-9-9-
C-7-7-7-7-7-7-7-7--9-9-9-9-9-9-9-9--10-10-10-10-10-10-10-10--9-9-9-9-9-9-9-9-
repeat twice then go back to

Main riff
Verse
Prechorus

Chorus

(distorted)
D---------------------------------------------------
A---------------------------------------------------
F---------------------------------------------------
C--2----5-----0-----5--4-5-4-5-4-5-4-0--------------
G--2----5-----0-----5--4-5-4-5-4-5-4-0--------------
C--2----5-----0-----5--4-5-4-5-4-5-4-0--------------

Bridge

(clean)
D--------------------------------------------------
A--------------------------------------------------
F--------------------------------------------------
C--------------------------------------------------
G------------0-------------0-----------------------
C---2---5---------2----5--------------------------- repeat a bunch of times

then
(distored)
D--------------------------------------------------
A--------------------------------------------------
F--------------------------------------------------
C--2--5--7----2--5--7------------------------------
G--2--5--7----2--5--7------------------------------
C--2--5--7----2--5--7------------------------------


then go back to chorus


In some parts of the song u can hear a guitar playing this in the background

(distorted)
D-7----7----7----7----7----7----7----7----7---------
A---10---10---10---10---10---10---10---10---10------

i dont play it myself since i dont feel a great need for it but it's just
something u might be interested in adding

any questions? comments? help? medical reports? email me


Текст, аккорды и табулатура для песни "Kahan Hay Tu", исполняет "Entity Paradigm".
Используемые в песне аккорды можно найти в разделе Как брать аккорды. Аккорды для шестиструнной гитары. Другие песни можно найти на нашем сайте, воспользовавшись алфавитным указателем вверху страницы.


 
Ошибка в тексте? Выделите ошибку и нажмите Ctrl+Enter