Song:The Wanderer
Artist:Emperor
Album:Anthems to the Welkin At Dusk
Tabbed by:[email protected]


Key:
AFAP=AS FAST AS POSSIBLE
p=pull-off
/=slide
h-hammer-on
pm=palm mute
...=tremelo
tr=trill
v=vibrato
b=bend
ah=artificial harmonic
()=ring out

Easy , but oh so good .

Riff 1:
--0---0--0---------------------------------------
--0-----------------------0----------------------
--9---9--9---/9--11--7----4-----/11--12--v11-v11-
--9----------------------------------------------
--7---7--7---/7---9--5----2-----/9---10--v9--v9--
-------------------------------------------------

Riff 2:
-----------------------------------------------------------------------------
-----------------------------------------------------------------------------
--v7-v7-8-v7--8-7-------------0-----------0------------0--------------0------
---0-------0------8-7-------5---5-------5---5------4------4-------4-----4----
--------------------0-----5-------5---5-------5------4------4-------4-----4--
------------------------3-----------3------------2-------------2-------------

Riff 3:
-----------------------------------------------
----------------------------0------------------
--/12--v11--/12-v11----12---4----/11--12--v11--
-----------------------------------------------
--/10---v9--/10--v9----10---2-----/9--10---v9--
-----------------------------------------------


Текст, аккорды и табулатура для песни "The Wanderer", исполняет "Emperor".
Используемые в песне аккорды можно найти в разделе Как брать аккорды. Аккорды для шестиструнной гитары. Другие песни можно найти на нашем сайте, воспользовавшись алфавитным указателем вверху страницы.


 
Ошибка в тексте? Выделите ошибку и нажмите Ctrl+Enter