Eminem - Sayin' Goodbye To Hollywood
Tabbed By: rap_boy
EMail: [email protected]                chorus
g|-----------------| |----------------|
d|-------------0---| |-0--------------|
a|-0-3-2-0---0---4-| |---4-3-2--2-1-0-|
e|-----------------| |----------------|
verse
g|---9-9--7-10-7-9-9--7-10-7-9-9--7-7-5-4-2-|
d|-7----------------------------------------|
a|------------------------------------------|
e|------------------------------------------|


Текст, аккорды и табулатура для песни "Sayin Goodbye To Hollywood", исполняет "Eminem".
Используемые в песне аккорды можно найти в разделе Как брать аккорды. Аккорды для шестиструнной гитары. Другие песни можно найти на нашем сайте, воспользовавшись алфавитным указателем вверху страницы.


 
Ошибка в тексте? Выделите ошибку и нажмите Ctrl+Enter