#----------------------------------PLEASE NOTE---------------------------------#
#This file is the author's own work and represents their interpretation of the #
#song. You may only use this file for private study, scholarship, or research. #
#------------------------------------------------------------------------------##
From: [email protected] (Do Hong Hai)
Subject: TAB: Emerson, Lake & Palmer: THE SAGE (PICTURES AT...)

This song is taken from the album PICTURES AT AN EXHIBITION (Mussorgsky).
But it is NOT written by Mussorgsky. On the CD there is a synthizer part
leading into the song, but it doesnt belong to it. Lake plays full in
acoustic. Tab isnt good for timing, thus you will have the record with
you or you know it by heart. If somebody does some changes to the tab,
i would like to have a copy. 

And one REQUEST : I cant get the right lyric. So send me if possible, yeah!

EXPlainations:
/ : Slide
!5!:Harmonic note
h,p:hammer pull (on/off): (with feeling)
(3):optional note
~~~:Notes under this are strummed quickly, just acros the strings
R  :Lets have a rest here.

Now lets tab a lot:

THE SAGE (by Lake) : also Emerson, Lake & Palmer

the intro, also for the first verse 

e:------------0-----------|------------0----------|------------0----------|
B:------1--0-----0--1-----|------1--0-----0--1----|------1--0-----0--1----|
G:2-----------------------|2----------------------|2----------------------|
D:---2-----------------2--|---3-----------------3-|---2-----------------2-|
A:------------------------|-----------------------|-----------------------|
E:------------------------|-----------------------|-----------------------|
  

  ~~~~~~~~~~~
e:----------0-----|
B:-------1--------|
G:----2-----------|
D:-3--------------|
A:----------------|
E:----------------|


Go the 3 first measures and add this  (instead of the last measures)                    
note: i just call it measure.                      
                      
e:--------------!5!--|
B:------1--!5!-------|
G:2------------------|
D:---3---------------|
A:-------------------|
E:-------------------|



e:------------0-----------|------------0---------|
B:------1--0-----0--1-----|------1--0-----0--1---|
G:2-----------------------|2---------------------|
D:---2-----------------2--|---3-----------------R|
A:------------------------|----------------------|
E:------------------------|----------------------|



e:-------------8--7-----11-12-|--------0--0h1--0--------|
B:----------7--------10-10-12-|-----3-------------0-----|
G:-------8--------------------|---2------------------1--|
D:----7-----------------------|-0-----------------------|
A:-9--------------------------|-------------------------|
E:----------------------------|-------------------------|

          
                           ~~~~
e:----------1-----------------0---------|-------------0----------|
B:-------0-----0--------0----1------1--0|-------1--0-------------|
G:----1--------------1------2-----------|-2--------------R--R--R-|
D:-3--------------3--------2-----3------|----2-------------------|
A:--------------------------------------|------------------------|
E:--------------------------------------|------------------------|


                                        ~~
e:---------0--0h1---------|--------------0-------|----------1-------------|
B:------3-----------------|-------------0--------|-------1-----1--------0-|
G:---2-------------R--R--R|----------1------R-R-R|----4-----------4-------|
D:-0----------------------|-------0--------------|-3-----------------3----|
A:------------------------|----2-----------------|------------------------|
E:------------------------|-0--------------------|------------------------|


e:-------------0-------|
B:-------1--0----------|
G:-2--------------R-R-R|
D:----2----------------|
A:---------------------|
E:---------------------|


Here the song goes like the intro, and :


e:------------0-----------|------------0---------|
B:------1--0-----0--1-----|------1--0-----0--1---|
G:2-----------------------|2---------------------|
D:---2-----------------2--|---3-----------------R|
A:------------------------|----------------------|
E:------------------------|----------------------|

  

e:---------7--8--7-----11--12-|---------0--0h1--0------|
B:------7-----------10-10--12-|------3-------------0---|
G:---8------------------------|---2-------------------1|
D:7---------------------------|0-----------------------|
A:----------------------------|------------------------|
E:----------------------------|------------------------|


e:---------1----------------------------------|------------0---------|
B:------0-----0--------0-----1--0--------1--0-|------1--0------------|
G:---1--------------1--------------2----------|2--------------R--R--R|
D:3--------------3--------2-----------3-------|---2------------------|
A:--------------------------------------------|----------------------|
E:--------------------------------------------|----------------------|

                                     ~~
e:---------0--0h1-------|-------------0-|-----------1-------------|
B:------3---------------|------------0--|--------1-----1--------0-|
G:---2-------------R-R-R|---------1-----|-----4-----------4-------|
D:0---------------------|------2--------|--3-----------------3----|
A:----------------------|---2-----------|-------------------------|
E:----------------------|1--------------|-------------------------|


e:------------0-------|-------------------------|-------------------------|
B:------1--0----------|-7--R---7--9--9/10--9----|-------------------------|
G:2--------------R-R-R|-8------------------9----|-R--9---11--12---9--11-R-|
D:---2----------------|-9------------------7----|----8---9---11---8--9----|
A:--------------------|--------------------7----|-------------------------|
E:--------------------|-------------------------|----9---11--12---9--11---|


e:--------------------------------------------------------------------------|
B:-----5------5------5--------5------5------5--------3------3------3--------|
G:---4------4------4--------5------5------5--------2------2------2----------|
D:-6------6------6--------7------7------7--------4------4------4------------|
A:--------------------------------------------------------------------------|
E:--------------------------------------------------------------------------|


e:-------------------|
B:--------------!5!--|  
G:-4---R-------------|
D:-6-----------------|
A:-------------------|
E:-------------------|

Go the long measure above again ( this time without the last short one), and

e:---------4--------|-4----------|---------------------------------|
B:--5------5---7----|-5---5---7--|--4/5-------------5--------5-----|
G:--4--R---4---6--R-|-4---4---6--|--2-----R------2--------2----R-R-|
D:--6------6---7----|-----6---7--|--3---------4--------2-----------|
A:------------------|------------|---------------------------------|
E:------------------|------------|---------------------------------|

            (*)
e:-12--------11---------9---------9--7-/----------------|
B:-9---9-----9---9------9---9-----9--7-/-----------4h5p-|
G:-9------9--9------9-r-9-----11--11-9-/-11---r---------|
D:-11--------11---------11--------11-9-/----------------|
A:-------------------------------------------------------|
E:-------------------------------------------------------|
(go this measure also twice, there are actually (where i marked (*)) 2 
harmonic notes instead, but it doesnt matter)


Go back again (you know up where) and leave out the last 2 measures 
(the last one, which is to play twice, and the last but one)

add this

e:-------(2)-----|-----------8p7--10-/-12----3--|------------2--3------2--|
B:4--2----1------|------8p7------------------5--|--------5---------5---4--|
G:---2----1--R-R-|-8h9-----------------------4--|-----4------------4---4--|
D:---2----2------|---------------------------5--|--5---------------4---4--|
A:---------------|------------------------------|-------------------------|
E:---------------|------------------------------|-------------------------|



e:-----------7--8------7---------12--|----------------------|
B:-7--8--10--------10------7---12----|---------12---12--10--|
G:-------------------------9---11----|-----11-------9-------|
D:-------------------------9---9-----|--13----------11------|
A:-----------------------------------|----------------------|
E:-----------------------------------|----------------------|



e:---------12--------------|---------------|------------7--|--------|
B:-----10-----------10--8--|--8---------9--|---------7-----|--------|
G:--9-------------9--------|---------9-----|------8--------|----R---|
D:-------------11----------|------9--------|---9-----------|--------|
A:-------------------------|---------------|---------------|--------|
E:-------------------------|---------------|---------------|--------|



e:-3-----------------------------------|--------------------------|
B:-------------------------------------|--------------------------|
G:----4--5--2--4-----4-----------------|--------------4-----------|
D:----------------5-----4--5--2--4-----|--2-----5--4-----4--5-----|
A:----------------------------------2--|-----2-----------------2--|
E:-------------------------------------|--------------------------|


e:--------------------------|------------------------|
B:--------------------------|------------------------|
G:--------------4-----------|-------------4----------|
D:--2-----5--4-----4--5-----|-2-----5--4-----4--5----|
A:-----3-----------------3--|----4-----------------R-|
E:--------------------------|------------------------|

                   
                    ~~~~~
e:------------------0-----|
B:-------------------0----|
G:--------------4-----0---|
D:--2-----5--4---------4--|
A:-----3----------------3-|
E:------------------------|


Go back to the intro part. Play until this:

                                     ~~
e:---------0--0h1-------|-------------0-|-----------1-------------|
B:------3---------------|------------0--|--------1-----1--------0-|
G:---2-------------R-R-R|---------1-----|-----4-----------4-------|
D:0---------------------|------0--------|--3-----------------3----|
A:----------------------|---2-----------|-------------------------|
E:----------------------|1--------------|-------------------------|

                ~~~~~
e:------------0-----0-|
B:------1--0-------1--|
G:2---------------2---|
D:---2-----------3----|
A:--------------------|
E:--------------------|


So, enjoy. If theres something like comment, advice or so on ..., please
email me at [email protected] 




Текст, аккорды и табулатура для песни "The Sage", исполняет "Emerson Lake And Palmer".
Используемые в песне аккорды можно найти в разделе Как брать аккорды. Аккорды для шестиструнной гитары. Другие песни можно найти на нашем сайте, воспользовавшись алфавитным указателем вверху страницы.


 
Ошибка в тексте? Выделите ошибку и нажмите Ctrl+Enter