Вступление
    C               E               Am
e:------------------------|
B:------5------5-|------9------9-|------5------5--|
G:-----5------5--|-----9------9--|-----5------5---|
D:----5------5---|----9------9---|----7------7----|
A:--3------3-----|--7------7----------|
E:-------------------|--5------5------|

   F          G
e:---------|----------|
B:----1----|----3-----|
G:-----2---|-----4----|
D:------3--|------5---|
A:--3------|--5-------|
E:---------|----------|


C                    E         E7
У тебя опять сегодня оказался день неважный:
Am                          F          G 
Твой воздушный замок рухнул, утонул корабль бумажный.
C                      E               E7
По щекам стекают слезы, твой привычный мир разрушен,
Am                        F            G
В сердце наступает осень, город стал уныл и скушен.
  
ПРИПЕВ:
  C                E E7
  Солнце- шарик пунцовый.
  Am                F G
  Слезы, мир бестолковый!
  C               E E7
  Звезды ходят кругами,
  Am                F G
  Слезы, пыль под ногами.

Может быть не все так плохо, может быть случится чудо?
Может быть ты побываешь в городах из изумруда!
И внезапною волною с головой накроет лето
И закружит и завертит в ритме солнечного света!

ПРИПЕВ(2 раза).


Текст, аккорды и табулатура для песни "Солнце", исполняет "Элизиум".
Используемые в песне аккорды можно найти в разделе Как брать аккорды. Аккорды для шестиструнной гитары. Другие песни можно найти на нашем сайте, воспользовавшись алфавитным указателем вверху страницы.


Слушать онлайн Солнце


ЭлизиумСолнце на Яндекс.Музыке


 
Ошибка в тексте? Выделите ошибку и нажмите Ctrl+Enter