Band      : Element Eighty
Song      : Goodbye
Tabbed by : BeechCraft_007

If you don't have a 7 string guitar, you can use a 6 string and drop D I find
that works effective to. Also if you have a Boss mt2 distortion box you can match
the exact song of the song. If not its pretty damn close.

Intro:
B |--------------------------------------------------------------------|
G |---------6 - 4 - 6 - 11 - 10 - 11 - 13------------------------------|
D |--------------------------------------------------------------------|
A |---------4 - 2 - 4 -  9 -  8 -  9 - 11------------------------------|
E |--------------------------------------------------------------------|
A |-4-4-4--------------------------------------------------------------|

Intro Continued:
B |-------7------------------------------------------------------------|
G |----------------------------6---------------------------------------|
D |--------------------------------------------------------------------|
A |-4-4-4---4-4-4-4-4----4-4-4----4-4-4-4------------------------------|
E |-4-4-4---4-4-4-4-4----4-4-4----4-4-4-4------4~----------------------|
A |-4-4-4---4-4-4-4-4----4-4-4----4-4-4-4--3-4-------------------------|
PM  . . .   . . . . .    . . .    . . . . 

B |-------7------------------------------------------------------------|
G |----------------------------6----11-11-11-11--10-10-10-10-----------|
D |--------------------------------------------------------------------|
A |-4-4-4---4-4-4-4-4----4-4-4----4--9--9--9--9---8--8--8--8-----------|
E |-4-4-4---4-4-4-4-4----4-4-4----4------------------------------------|
A |-4-4-4---4-4-4-4-4----4-4-4----4------------------------------------|
PM  . . .   . . . . .    . . .    .  

Verse:
B |--------------------------------------------------------------------|
G |----6 - 4 - 6 - 11 - 10 - 11 - 13-----------------------------------|
D |--------------------------------------------------------------------|  x2
A |----4 - 2 - 4 -  9 -  8 -  9 - 11-----------------------------------| 
E |--------------------------------------------------------------------|
A |--------------------------------------------------------------------|

Pre-Chorus:
B |--------------------------------------------------------------------|
G |--6---6---6---6---8---6---4---4---4---/11-11-11-11-10-10-10-10------|
D |--------------------------------------------------------------------|
A |--4-4-4-4-4-4-4-4-6-6-4-4-2-2-2-2-2-2--/9--9--9--9--8--8--8--8------|
E |--------------------------------------------------------------------|
A |--------------------------------------------------------------------|
PM     .   .   .   .   .   .   .   .

B |--------------------------------------------------------------------|
G |--------------------------------------------------------------------|
D |--/13----13----13----13----15----13----11----11----11----11---------|
A |--------------------------------------------------------------------|
E |--/11-11-11-11-11-11-11-11-13-13-11-11--9--9--9--9--9--9--9---------|
A |--------------------------------------------------------------------|
PM       .     .     .     .     .     .      .     .     .

Last time at the end of the verse after the breakdown
B |----------------|
G |---11~---10~----|
D |----------------|  
A |----------------|
E |----------------|
A |----------------|


Breakdown:
B |--------------------------------------------------------------------|
G |--------------------------------------------------------------------|
D |--------------------------------------------------------------------|
A |-4-4-4-4-4-4-4-4-2-2-2-2-4-4-4-4-9-9-9-9-8-8-8-8--------------------|
E |-4-4-4-4-4-4-4-4-2-2-2-2-4-4-4-4-9-9-9-9-8-8-8-8--------------------|
A |-4-4-4-4-4-4-4-4-2-2-2-2-4-4-4-4-9-9-9-9-8-8-8-8--------------------|
PM  . . . . . . . . . . . . . . . . . . . . . . . .

B |--------------------------------------------------------------------|
G |--------------------------------------------------------------------|
D |--------------------------------------------------------------------|
A |-4-4-4-4-4-4-4-4-4-4-4-4-4-4-9-9-9-9-9-9-9-9-9-9-9-9-9-8-8-8-8------|  x2
E |-4-4-4-4-4-4-4-4-4-4-4-4-4-4-7-7-7-7-7-7-7-7-9-9-9-9-9-8-8-8-8------|
A |-4-4-4-4-4-4-4-4-4-4-4-4-4-4-----------------9-9-9-9-9-8-8-8-8------|
PM  . . . . . . . . . . . . . . . . . . . . . . . . . . . . . . .


Текст, аккорды и табулатура для песни "Goodbye", исполняет "Element Eighty".
Используемые в песне аккорды можно найти в разделе Как брать аккорды. Аккорды для шестиструнной гитары. Другие песни можно найти на нашем сайте, воспользовавшись алфавитным указателем вверху страницы.


 
Ошибка в тексте? Выделите ошибку и нажмите Ctrl+Enter