Element Eighty - Broken Promises
Drop C#
* = Blunt
Made by: [email protected]

Order:

Intro
Main riff/chorus
Verse
Main riff/chorus
After chorus riff
Verse
Main riff/ chorus
Interlude
Verse
Main riff/chorus


Intro
|----------------|
|----------------|
|-6-6-6-6-6-6--6-|
|-6-6-6-6-6-6--6-|
|-4-4-4-4-4-4--4-|
|----------------|

Main riff/ chorus
|------------------------------------------------------------|
|------------------------------------------------------------|
|-6-6-6-6-6-6--6--6--6-9--------------------------6----------|
|-6-6-6-6-6-6--6--6—-6-9-9---7-7-7-7-7-7--7--7—-7-6-6--------|
|-4-4-4-4-4-4--4--4—-4-7-9---7-7-7-7-7-7—-7--7—-7-4-6--------|
|------------------------7---5-5-5-5-5-5--5--5--5---4--------|

|------------------------------------------------------------|
|------------------------------------------------------------|
|-6-6-6-6-6-6--6--6--6-9-------------------------------------|
|-6-6-6-6-6-6--6--6—-6-9-9---7-7-7-7-7-7--7--7—-7-6----------|
|-4-4-4-4-4-4--4--4—-4-7-9---7-7-7-7-7-7—-7--7—-7-6----------|
|------------------------7---5-5-5-5-5-5--5--5--5-4----------|

Verse- p/m
|------------------------------------------------------------|
|------------------------------------------------------------|
|-6-6-6-6-6-6--6--6--6-9-9---------------------------6-6-----|
|-6-6-6-6-6-6--6--6—-6-9-9-9-9--7-7-7-7-7-7--7--7—-7-6-6-6-6-|
|-4-4-4-4-4-4--4--4—-4-7-7-9-9--7-7-7-7-7-7—-7--7—-7-4-4-6-6-|
|--------------------------7-7--5-5-5-5-5-5--5--5--5-----4-4-|
  * * * * * *  *  *  * * * * *  * * * * * *  * * * * * * * *

|------------------------------------------------------------|
|------------------------------------------------------------|
|-6-6-6-6-6-6--6--6--6-9-9---------------------------6-6-----|
|-6-6-6-6-6-6--6--6—-6-9-9-9-9--7-7-7-7-7-7--7--7—-7-6-6-6-6-|
|-4-4-4-4-4-4--4--4—-4-7-7-9-9--7-7-7-7-7-7—-7--7—-7-4-4-6-6-|
|--------------------------7-7--5-5-5-5-5-5--5--5--5-----4-4-|
  * * * * * *  *  *  * * * * *  * * * * * *  * * * * * * * *

|------------------------------------------------------------|
|------------------------------------------------------------|
|-6-6-6-6-6-6--6--6--6-9-----------------------------6-------|
|-6-6-6-6-6-6--6--6—-6-9---9----7-7-7-7-7-7--7--7—-7-6---6---|
|-4-4-4-4-4-4--4--4—-4-7---9----7-7-7-7-7-7—-7--7—-7-4---6---|
|--------------------------7----5-5-5-5-5-5--5--5--5-----4---|
  * * * * * *  *  *  *          * * * * * *  * * * * 

|------------------------------------------------------------|
|------------------------------------------------------------|
|-6-6-6-6-6-6--6--6--6-9-------------------------------------|
|-6-6-6-6-6-6--6--6—-6-9---9----7-7-7-7-7-7--6----—----------|
|-4-4-4-4-4-4--4--4—-4-7---9----7-7-7-7-7-7—-6----—----------|
|--------------------------7----5-5-5-5-5-5--4---------------|
  * * * * * *  *  *  *          * * * * * *  

After chorus riff.

|-------|
|-------|
|-7/19--|
|-X/X---|
|-5/17--|
|-------|



Interlude                      
|------------------------------------------------------------|
|------------------------------------------------------------|
|-7---9-10-9-12-7-7-7---12-9—-15/15/15/15/15/15--14—17-------|
|-X---X-X--X-X--X-X-X---X--X--X--X--X--X--X--X---X--X-----10~|
|-5---7-8--7-10-5-5-5---10-8—-13/13/13/13/13/13--12—15----10~|
|---------------------------------------------------------12~|
	        *


Текст, аккорды и табулатура для песни "Broken Promises", исполняет "Element Eighty".
Используемые в песне аккорды можно найти в разделе Как брать аккорды. Аккорды для шестиструнной гитары. Другие песни можно найти на нашем сайте, воспользовавшись алфавитным указателем вверху страницы.


 
Ошибка в тексте? Выделите ошибку и нажмите Ctrl+Enter