Intro:

G F D# D C D C D G F D# D C D C D  etc.

This is played during the underlined part:


E-----------------13-|-----------------13-|--8/10-10-10-10-11-11-8-8-8-10-8-8-|
B-----------10-11----|-----------10-11----|-----------------------------------|
G-----10-------------|-----10-------------|-----------------------------------|
D-7-8----------------|-7-8----------------|-----------------------------------|
A--------------------|--------------------|-----------------------------------|
E--------------------|--------------------|-----------------------------------|

----------8------------|-----------------13-|-----------------13-||
-11-11-11—11-10-8------|-----------10-11----|-----------10-11----||
------------------10-8-|-----10-------------|-----10-------------||
-----------------------|-7-8----------------|-7-8----------------||
-----------------------|--------------------|--------------------||
-----------------------|--------------------|--------------------||

Verse:

G          F             D#
 A moving stream of in formation
        D                  C D            C        D
 that is calling on the wind, the secrets never end.
G              F                     D#
 And now they call, they sing, they play,
               D                    C    D            C  D
 they dance for you from out of the blue what can you do?

Chorus:

G                E        B           C
 The secret messages are calling to me endlessly
      B              C
 they call to me across the air.
G        E                B              C                  B
 The messages across the atmosphere they whisper in your ear
         C       D    G
 they're calling everywhere.

Verse:

Where words cascade like rainbows tumbling from the sky then I'll be there, I'll be there.

When messages will call to you their secrets all around without a sound they're all around.

Chorus.

Solo:
E--10-12-12-12/7-7-10-10-10------------------------|
B---------------------------8-8-8------------------|
G---------------------------------11-11-11-9-7/5/7-|
D--------------------------------------------------|
A--------------------------------------------------|
E--------------------------------------------------|

Those secret messages that spill into the air from far away, so far away.

A flowing river of illusion running with confusion, never gone—it goes on and on.

Chorus:

G                E        B           C
 The secret messages are calling to me endlessly
      B              C
 they call to me across the air.
G        E                B              C                  B
 The messages across the atmosphere they whisper in your ear
         C            D     D# E D#
 they're calling everywhere.

D  D#  E  D# -repeat
Secret messages (The messages across the atmosphere, they whisper in your ear)
D  C   B  C     G            G#          B              C
Secret messages (The secret messages are calling to me endlessly)
 D          D#              E                D#
(The messages across the atmosphere, they whisper in your)

A
 Secret.


Текст, аккорды и табулатура для песни "Secret Messages", исполняет "Electric Light Orchestra".
Используемые в песне аккорды можно найти в разделе Как брать аккорды. Аккорды для шестиструнной гитары. Другие песни можно найти на нашем сайте, воспользовавшись алфавитным указателем вверху страницы.


 
Ошибка в тексте? Выделите ошибку и нажмите Ctrl+Enter