G-------------------------------7-----7-----7------7-
D------9-----9-----9-----9---------------------------
A----------------------------5------5-----5------5---
E---7-----7-----7-----7------------------------------


G-----9-----9-----9------9-----4----4-------------
D-----------------------------------------6-----7-
A--7-----7-----7------7-----2----2----------------
E--------------------------------------4----5-----

repeat four times


G----------------------7------7---
D------9--------9-----------------
A--------------------5---0--5-----
E---7-----0---7----0--------------

G-----9-----9--------4------------
D--------------------------6---7--
A-0-7----0-7---0--2---------------
E-----------------------4----5----

repeat twice


G-------------------------------7-----7-----7------7-
D------9-----9-----9-----9---------------------------
A----------------------------5------5-----5------5---
E---7-----7-----7-----7------------------------------


G-----9-----9-----9------9-----4----4-------------
D-----------------------------------------6-----7-
A--7-----7-----7------7-----2----2----------------
E--------------------------------------4----5-----


Текст, аккорды и табулатура для песни "Danger Danger High Voltage", исполняет "Electric 6".
Используемые в песне аккорды можно найти в разделе Как брать аккорды. Аккорды для шестиструнной гитары. Другие песни можно найти на нашем сайте, воспользовавшись алфавитным указателем вверху страницы.


 
Ошибка в тексте? Выделите ошибку и нажмите Ctrl+Enter