EIGHTIES MATCHBOX B-LINE DISASTER
  - - - - - - - PSYCHOSIS SAFARI- - - - - - - 

Tabbed by: guy_p
E-mail: [email protected]

This is my first tab so don’t scream at me if its wrong.

TUNING: E,A,D,G

INTRO: (x2)

G|-------------------------------------------------------------------| 
D|-------------------------------------------------------------------| 
A|---0-0-3-0-0-3-0-0-3-0-0-3-----------------------------------------| 
E|-------------------------------------------------------------------|    

MAIN RIFF/VERSE 1: (x8)

G|-------------------------------------------------------------------|
D|-------------------------------------------------------------------| 
A|---0-0-3-0-0-3-0---------------------------------------------------| 
E|---------------------0-0-3-0-0-6-6-6-------------------------------| 

CHORUS: (x4)

G|-------------------------------------------------------------------| 
D|-------------------------------------------------------------------| 
A|---7-7-7-7-3-3-6-6-------------------------------------------------| 
E|------------------------3-3-3-3-5-5-6-6----------------------------| 

BRIDGE: (happens beginning of verse 2 and during guitar solo)

G|-------------------------------------------------------------------| 
D|-------------------------------------------------------------------| 
A|---0-0----0-0----------------------0-0----0-0----------------------| 
E|----------------- - 0-0-----0-0------------------0-0----0-0--------| 

Timing:                                                
INTRO
VERSE 1
CHORUS
BRIDGE                                         I think that’s about all.
MAIN RIFF
CHORUS
BRIDGE                                            have fun :)
MAIN RIFF


Текст, аккорды и табулатура для песни "Psychosis Safari", исполняет "Eighties Matchbox B-line Disaster".
Используемые в песне аккорды можно найти в разделе Как брать аккорды. Аккорды для шестиструнной гитары. Другие песни можно найти на нашем сайте, воспользовавшись алфавитным указателем вверху страницы.


 
Ошибка в тексте? Выделите ошибку и нажмите Ctrl+Enter