#----------------------------------PLEASE NOTE--------------------------------#
#This file is the author's own work and represents their interpretation of the#
#song. You may only use this file for private study, scholarship, or research.#
#-----------------------------------------------------------------------------#
#-- File created with Instab - http://www.pconline.com/~smcarey/instab.html --#
#-----------------------------------------------------------------------------#

Author/Artist: 80s Matchbox B-Line Disaster
Title: Mister Mental
Transcribed by: Andrew Biles

This is a pretty simple song.  The solo is quite fast in places but is really short
so shouldn't take long to learn.  Over the solo is just the chorus chords.  I've tried
getting down as much of the second guitar piece as I could, but in parts it may be
slightly off.  Anyway, it's all pretty close.
Standard tuning

 Intro
|------------------------|------------------------
|------------------------|------------------------
|------------------------|------------------------
|-9--8--7-----5--4--3--2-|-9--8--7----------------
|-7--6--5--7--3--2--1--0-|-7--6--5--7--7--7--7--7-
|----------5-------------|----------5--5--5--5--5-
                      x3

 Verse
|---------------------------------------------------------
|---------------------------------------------------------
|-2-2-2-2-2-2-2-2-2-2-2-2-2-2-2-2-2-2-2-2-2-2-2-2-4--5--4-
|-2-2-2-2-2-2-2-2-2-2-2-2-2-2-2-2-2-2-2-2-2-2-2-2-4--5--4-
|-0-0-0-0-0-0-0-0-0-0-0-0-0-0-0-0-0-0-0-0-0-0-0-0-2--3--2-
|---------------------------------------------------------
| Guitar 1
|
|---------------------------------------------------------
|-5-5-5-5-5-5-5-5-5-5-5-5-5-5-5-5-5-5-5-5-5-5-5-5---------
|-x-x-x-x-x-x-x-x-x-x-x-x-x-x-x-x-x-x-x-x-x-x-x-x-4--2----
|-2-2-2-2-2-2-2-2-2-2-2-2-2-2-2-2-2-2-2-2-2-2-2-2-2--0----
|---------------------------------------------------------
|---------------------------------------------------------
 Guitar 2

 Chorus
|-------------------------|------------------------------
|-------------------------|------------------------------
|-2-2-2-2-2-2-2-2-4--5--4-|-2-2-2-2-2-2-2-2-2------2-2---
|-2-2-2-2-2-2-2-2-4--5--4-|-2-2-2-2-2-2-2-2-2------2-2---
|-0-0-0-0-0-0-0-0-2--3--2-|-0-0-0-0-0-0-0-0-0------0-0---
|-------------------------|------------------------------
| Guitar 1             x3
|
|-------------------------|-------------------------------
|-------------------------|-------------------------------
|-2-2-2-2-2-2-2-2-4--5--4-|-2-2-2-2-2-2-2-2-10brp8-8-9----
|-2-2-2-2-2-2-2-2-4--5--4-|-2-2-2-2-2-2-2-2------------10-
|-0-0-0-0-0-0-0-0-2--3--2-|-0-0-0-0-0-0-0-0---------------
|-------------------------|-------------------------------
 Guitar 2              x3

 Bridge
|-------------------------------------------------
|-------4-----------3-----------7-----------6-----
|-5-5-5---6-5-4-4-4---5-4-8-8-8---9-8-7-7-7---8-7-
|-------------------------------------------------
|-------------------------------------------------
|-------------------------------------------------

 Solo
|-11^--11--9^-----------9-11^-----------12-15^-15-12-14-15p12-14-------------
|-------------10--10-10--------10-13p10--------------------------10--10^-10^-
|----------------------------------------------------------------------------
|----------------------------------------------------------------------------
|----------------------------------------------------------------------------
|----------------------------------------------------------------------------

-----------|
-10^-------|
-----9-----|
-------7^--|
-----------|
-----------|

any questions? [email protected]
___________________
Lyrics:

If you caught me smiling
Do you think I'm laughing?
Can't you see I'm working?
Look at me I'm boring
What you say about my friend?
Do you think he's funny?
Lots of screamy weather
I'm amazed I'm living tonight

Do you suffer from mental?
Do you suffer from mental tonight?
Do you suffer from mental tonight?
Are you dying for pleasure?
Does it make you feel better?
Are you dying for pleasure tonight?

I can feel your heart beat
Can you keep on running
Your mind is on heat
As the world keeps burning
As she draws her last breath
Will you hear her calling?
Look at her she's fading
Be a man and solve her tonight

Do you suffer from mental?
Do you suffer from mental tonight?
Do you suffer from mental tonight?
Are you dying for pleasure?
Does it make you feel better?
Are you dying for pleasure tonight?

Like a star at night fall
Are you feeling lonesome?
I believe in action
So I move in closer
Look at him he's crying
I'm a towering pillar
And the world is looming
And there's a war on terror tonight

Do you suffer from mental?
Do you suffer from mental tonight?
Do you suffer from mental tonight?
Are you dying for pleasure?
Does it make you feel better?
Are you dying for pleasure tonight?

....Break....

Do you suffer from mental?
Do you suffer from mental tonight?
Do you suffer from mental tonight?
Are you dying for pleasure?
Does it make you feel better?
Are you dying for pleasure tonight?


Текст, аккорды и табулатура для песни "Mr Mental", исполняет "Eighties Matchbox B-line Disaster".
Используемые в песне аккорды можно найти в разделе Как брать аккорды. Аккорды для шестиструнной гитары. Другие песни можно найти на нашем сайте, воспользовавшись алфавитным указателем вверху страницы.


 
Ошибка в тексте? Выделите ошибку и нажмите Ctrl+Enter