Rags to Rags by the Eels
Off Beautiful Freak.
Tabbed: Mark Lynch ([email protected])

Any additions/corrections let me know. 

e |----------------------|
B |----------------------|
G |------5-------5-------|
D |----7---7---7---7-----|  * 6
A |--7-------8-----------|
E |----------------------|

then:
e |----------------------|
B |----------------------|
G |------0-------0-------|
D |----2---2---2---2-----|
A |--3-------0-----------|
E |----------------------|


Chorus: G5 C5 D5 C5


there's a spider crawling on the bathroom mirror
right on top of my right eye
and i can't stop staring back
how did i get this way
take a big look at a living lie 

rags to rags and rust to rust
how do you stand when you've been crushed
so rags to riches was a bust 

sometimes i dream about it
what it's like back home
the railroad tracks and the pussywillow
but i had to leave it
now i go back whenever my tired head hits the pillow 

rags to rags and rust to rust
how do you stand when you've been crushed
so rags to riches was a bust 

busted once again
well i'll show them one day
that i can buy and sell the world 

and one day i'll come through my american dream
but it won't mean a fucking thing 


Текст, аккорды и табулатура для песни "Rags To Rags", исполняет "Eels".
Используемые в песне аккорды можно найти в разделе Как брать аккорды. Аккорды для шестиструнной гитары. Другие песни можно найти на нашем сайте, воспользовавшись алфавитным указателем вверху страницы.


 
Ошибка в тексте? Выделите ошибку и нажмите Ctrl+Enter