Artist: 	EchoBrain
Title: 		Colder World
Album: 		EchoBrain
Transcribed by: Adam Dabin
Email: 		[email protected]
Tuning: 	standard
Notes:		Second guitar play with slide. Listen to CD for timing.
		Will work out the slide solo in the next version. Enjoy :)

  Bm               F#                   E                Em  
|-2---2---2---2--|-9----9----9----9---|-7---7---7---7--|-7---7---7---7--|
|-3---3---3---3--|-11---11---11---11--|-9---9---9---9--|-8---8---8---8--|
|-4---4---4---4--|-11---11---11---11--|-9---9---9---9--|-9---9---9---9--|
|-4---4---4---4--|-11---11---11---11--|-9---9---9---9--|-9---9---9---9--|
|-2---2---2---2--|-9----9----9----9---|-7---7---7---7--|-7---7---7---7--|
|----------------|--------------------|----------------|----------------|
     seven thousand reasons   I should deceive them all the rats
              
  Bm               F#                   E                Em
|-2---2---2---2--|-9----9----9----9---|-7---7---7---7--|-7---7---7---7--|
|-3---3---3---3--|-11---11---11---11--|-9---9---9---9--|-8---8---8---8--|
|-4---4---4---4--|-11---11---11---11--|-9---9---9---9--|-9---9---9---9--|
|-4---4---4---4--|-11---11---11---11--|-9---9---9---9--|-9---9---9---9--|
|-2---2---2---2--|-9----9----9----9---|-7---7---7---7--|-7---7---7---7--|
|----------------|--------------------|----------------|----------------|
     They follow the latest trends and the latest stance on life     
         
  Bm               F#                   E                Em            
|-2---2---2---2--|-9----9----9----9---|-7---7---7---7--|-7---7---7---7--|
|-3---3---3---3--|-11---11---11---11--|-9---9---9---9--|-8---8---8---8--|
|-4---4---4---4--|-11---11---11---11--|-9---9---9---9--|-9---9---9---9--|
|-4---4---4---4--|-11---11---11---11--|-9---9---9---9--|-9---9---9---9--|
|-2---2---2---2--|-9----9----9----9---|-7---7---7---7--|-7---7---7---7--|
|----------------|--------------------|----------------|----------------|
     what fantasies seethe out you wouldn't believe (believe) (believe) 
      
  D                G                 D                G
|----------------|-----------------|----------------|----------------|
|-7-7-7-7-7-7-7-7|-----------------|-7-7-7-7-7-7-7-7|----------------|
|-7-7-7-7-7-7-7-7|-----------------|-7-7-7-7-7-7-7-7|----------------|
|-7-7-7-7-7-7-7-7|-5-5-5-5-5-5-5-5-|-7-7-7-7-7-7-7-7|-5-5-5-5-5-5-5-5|
|-5-5-5-5-5-5-5-5|-5-5-5-5-5-5-5-5-|-5-5-5-5-5-5-5-5|-5-5-5-5-5-5-5-5|
|----------------|-3-3-3-3-3-3-3-3-|----------------|-3-3-3-3-3-3-3-3|
                 its a colder world                 its a colder world  
   
  D                G                 D                G                G A 
|----------------|-----------------|----------------|----------------|-----|
|-7-7-7-7-7-7-7-7|-----------------|-7-7-7-7-7-7-7-7|----------------|-----|
|-7-7-7-7-7-7-7-7|-----------------|-7-7-7-7-7-7-7-7|----------------|-----|
|-7-7-7-7-7-7-7-7|-5-5-5-5-5-5-5-5-|-7-7-7-7-7-7-7-7|-5-5---5-5---5-5|-5-7-|
|-5-5-5-5-5-5-5-5|-5-5-5-5-5-5-5-5-|-5-5-5-5-5-5-5-5|-5-5---5-5---5-5|-5-7-|
|----------------|-3-3-3-3-3-3-3-3-|----------------|-3-3---3-3---3-3|-3-5-|
                its a colder world
                                            
  Bm               F#                       E                Em
|-2-2-2-2-2-2-2-2|-9--9--9--9--9--9--9--9-|-7-7-7-7-7-7-7-7|-7-7-7-7-7-7-7-7|
|-3-3-3-3-3-3-3-3|-11-11-11-11-11-11-11-11|-9-9-9-9-9-9-9-9|-8-8-8-8-8-8-8-8|
|-4-4-4-4-4-4-4-4|-11-11-11-11-11-11-11-11|-9-9-9-9-9-9-9-9|-9-9-9-9-9-9-9-9|
|-4-4-4-4-4-4-4-4|-11-11-11-11-11-11-11-11|-9-9-9-9-9-9-9-9|-9-9-9-9-9-9-9-9|
|-2-2-2-2-2-2-2-2|-9--9--9--9--9--9--9--9-|-9-9-9-9-9-9-9-9|-7-7-7-7-7-7-7-7|
|----------------|------------------------|----------------|----------------|
     sometimes  the  crowd  goes  into  a coma  your  so   great              

  Bm               F#                       E                Em
|-2-2-2-2-2-2-2-2|-9--9--9--9--9--9--9--9-|-7-7-7-7-7-7-7-7|-7-7-7-7-7-7-7-7|
|-3-3-3-3-3-3-3-3|-11-11-11-11-11-11-11-11|-9-9-9-9-9-9-9-9|-8-8-8-8-8-8-8-8|
|-4-4-4-4-4-4-4-4|-11-11-11-11-11-11-11-11|-9-9-9-9-9-9-9-9|-9-9-9-9-9-9-9-9|
|-4-4-4-4-4-4-4-4|-11-11-11-11-11-11-11-11|-9-9-9-9-9-9-9-9|-9-9-9-9-9-9-9-9|
|-2-2-2-2-2-2-2-2|-9--9--9--9--9--9--9--9-|-9-9-9-9-9-9-9-9|-7-7-7-7-7-7-7-7|
|----------------|------------------------|----------------|----------------|
  I know that youll never see it your to busy being it your so great          

  Bm               F#                       E                Em
|-2-2-2-2-2-2-2-2|-9--9--9--9--9--9--9--9-|-7-7-7-7-7-7-7-7|-7-7-7-7-7-7-7-7|
|-3-3-3-3-3-3-3-3|-11-11-11-11-11-11-11-11|-9-9-9-9-9-9-9-9|-8-8-8-8-8-8-8-8|
|-4-4-4-4-4-4-4-4|-11-11-11-11-11-11-11-11|-9-9-9-9-9-9-9-9|-9-9-9-9-9-9-9-9|
|-4-4-4-4-4-4-4-4|-11-11-11-11-11-11-11-11|-9-9-9-9-9-9-9-9|-9-9-9-9-9-9-9-9|
|-2-2-2-2-2-2-2-2|-9--9--9--9--9--9--9--9-|-9-9-9-9-9-9-9-9|-7-7-7-7-7-7-7-7|
|----------------|------------------------|----------------|----------------|
  But I can  fly it  without you   I'll  do it  without  you  ohhhh           

  D                G                 D                G
|----------------|-----------------|----------------|----------------|
|-7-7-7-7-7-7-7-7|-----------------|-7-7-7-7-7-7-7-7|----------------|
|-7-7-7-7-7-7-7-7|-----------------|-7-7-7-7-7-7-7-7|----------------|
|-7-7-7-7-7-7-7-7|-5-5-5-5-5-5-5-5-|-7-7-7-7-7-7-7-7|-5-5-5-5-5-5-5-5|
|-5-5-5-5-5-5-5-5|-5-5-5-5-5-5-5-5-|-5-5-5-5-5-5-5-5|-5-5-5-5-5-5-5-5|
|----------------|-3-3-3-3-3-3-3-3-|----------------|-3-3-3-3-3-3-3-3|
| Guitar 2 (with slide)                                              |                               
|----------------|-----------------|----------------|----------------|
|----------------|-----------------|----------------|----------------|
|----------------|-----------------|----------------|----------------|
|-/7~~~~~~~---76|~~~~~~-----------|--/7~~~~~~~--76|~~~~~~----------|
|---7------------|-----------------|----7-----------|----------------|
|----------------|-----------------|----------------|----------------|
                 its a colder world                 its a colder world     

  D                G                 D                G                G A 
|----------------|-----------------|----------------|----------------|-----|
|-7-7-7-7-7-7-7-7|-----------------|-7-7-7-7-7-7-7-7|----------------|-----|
|-7-7-7-7-7-7-7-7|-----------------|-7-7-7-7-7-7-7-7|----------------|-----|
|-7-7-7-7-7-7-7-7|-5-5-5-5-5-5-5-5-|-7-7-7-7-7-7-7-7|-5-5---5-5---5-5|-5-7-|
|-5-5-5-5-5-5-5-5|-5-5-5-5-5-5-5-5-|-5-5-5-5-5-5-5-5|-5-5---5-5---5-5|-5-7-|
|----------------|-3-3-3-3-3-3-3-3-|----------------|-3-3---3-3---3-3|-3-5-|
| Guitar 2 (with slide)                                                    |                               
|----------------|-----------------|----------------|----------------|-----|
|----------------|-----------------|----------------|----------------|-----|
|----------------|-----------------|----------------|----------------|-----|
|-/7~~~~~~~---76|~~~~~~-----------|--/7~~~~~~~--76|~~~~~~----------|-----|
|---7------------|-----------------|----7-----------|----------------|-----|
|----------------|-----------------|----------------|----------------|-----|
                 its a colder world                                           

  Bm               F#                       E                Em
|-2-2-2-2-2-2-2-2|-9--9--9--9--9--9--9--9-|-7-7-7-7-7-7-7-7|-7-7-7-7-7-7-7-7|
|-3-3-3-3-3-3-3-3|-11-11-11-11-11-11-11-11|-9-9-9-9-9-9-9-9|-8-8-8-8-8-8-8-8|
|-4-4-4-4-4-4-4-4|-11-11-11-11-11-11-11-11|-9-9-9-9-9-9-9-9|-9-9-9-9-9-9-9-9|
|-4-4-4-4-4-4-4-4|-11-11-11-11-11-11-11-11|-9-9-9-9-9-9-9-9|-9-9-9-9-9-9-9-9|
|-2-2-2-2-2-2-2-2|-9--9--9--9--9--9--9--9-|-9-9-9-9-9-9-9-9|-7-7-7-7-7-7-7-7|
|----------------|------------------------|----------------|----------------|
                                 is   it  safe  to  get   older               

  Bm               F#                       E                Em
|-2-2-2-2-2-2-2-2|-9--9--9--9--9--9--9--9-|-7-7-7-7-7-7-7-7|-7-7-7-7-7-7-7-7|
|-3-3-3-3-3-3-3-3|-11-11-11-11-11-11-11-11|-9-9-9-9-9-9-9-9|-8-8-8-8-8-8-8-8|
|-4-4-4-4-4-4-4-4|-11-11-11-11-11-11-11-11|-9-9-9-9-9-9-9-9|-9-9-9-9-9-9-9-9|
|-4-4-4-4-4-4-4-4|-11-11-11-11-11-11-11-11|-9-9-9-9-9-9-9-9|-9-9-9-9-9-9-9-9|
|-2-2-2-2-2-2-2-2|-9--9--9--9--9--9--9--9-|-9-9-9-9-9-9-9-9|-7-7-7-7-7-7-7-7|
|----------------|------------------------|----------------|----------------|
                                 budget   told  me its  over                  

  Bm               F#                       E                Em
|-2-2-2-2-2-2-2-2|-9--9--9--9--9--9--9--9-|-7-7-7-7-7-7-7-7|-7-7-7-7-7-7-7-7|
|-3-3-3-3-3-3-3-3|-11-11-11-11-11-11-11-11|-9-9-9-9-9-9-9-9|-8-8-8-8-8-8-8-8|
|-4-4-4-4-4-4-4-4|-11-11-11-11-11-11-11-11|-9-9-9-9-9-9-9-9|-9-9-9-9-9-9-9-9|
|-4-4-4-4-4-4-4-4|-11-11-11-11-11-11-11-11|-9-9-9-9-9-9-9-9|-9-9-9-9-9-9-9-9|
|-2-2-2-2-2-2-2-2|-9--9--9--9--9--9--9--9-|-9-9-9-9-9-9-9-9|-7-7-7-7-7-7-7-7|
|----------------|------------------------|----------------|----------------|
      your  deeper  and  older    but  you    much   colder                   

  D                G                 D                G
|----------------|-----------------|----------------|----------------|
|-7-7-7-7-7-7-7-7|-----------------|-7-7-7-7-7-7-7-7|----------------|
|-7-7-7-7-7-7-7-7|-----------------|-7-7-7-7-7-7-7-7|----------------|
|-7-7-7-7-7-7-7-7|-5-5-5-5-5-5-5-5-|-7-7-7-7-7-7-7-7|-5-5-5-5-5-5-5-5|
|-5-5-5-5-5-5-5-5|-5-5-5-5-5-5-5-5-|-5-5-5-5-5-5-5-5|-5-5-5-5-5-5-5-5|
|----------------|-3-3-3-3-3-3-3-3-|----------------|-3-3-3-3-3-3-3-3|
| Guitar 2 (with slide)                                              |                               
|----------------|-----------------|----------------|----------------|
|----------------|-----------------|----------------|----------------|
|----------------|-----------------|----------------|----------------|
|-/7~~~~~~~---76|~~~~~~-----------|--/7~~~~~~~--76|~~~~~~----------|
|---7------------|-----------------|----7-----------|----------------|
|----------------|-----------------|----------------|----------------|
                 its a colder world                 its a colder world
                                                                              
  D                G                 D                G
|----------------|-----------------|----------------|----------------|
|-7-7-7-7-7-7-7-7|-----------------|-7-7-7-7-7-7-7-7|----------------|
|-7-7-7-7-7-7-7-7|-----------------|-7-7-7-7-7-7-7-7|----------------|
|-7-7-7-7-7-7-7-7|-5-5-5-5-5-5-5-5-|-7-7-7-7-7-7-7-7|-5-5-5-5-5-5-5-5|
|-5-5-5-5-5-5-5-5|-5-5-5-5-5-5-5-5-|-5-5-5-5-5-5-5-5|-5-5-5-5-5-5-5-5|
|----------------|-3-3-3-3-3-3-3-3-|----------------|-3-3-3-3-3-3-3-3|
| Guitar 2 (with slide)                                              |                               
|----------------|-----------------|----------------|----------------|
|----------------|-----------------|----------------|----------------|
|----------------|-----------------|----------------|----------------|
|-/7~~~~~~~---76|~~~~~~-----------|--/7~~~~~~~--76|~~~~~~----------|
|---7------------|-----------------|----7-----------|----------------|
|----------------|-----------------|----------------|----------------|
                 its a colder world                 its a colder world

  D                G                 D                G
|----------------|-----------------|----------------|----------------|
|-7-7-7-7-7-7-7-7|-----------------|-7-7-7-7-7-7-7-7|----------------|
|-7-7-7-7-7-7-7-7|-----------------|-7-7-7-7-7-7-7-7|----------------|
|-7-7-7-7-7-7-7-7|-5-5-5-5-5-5-5-5-|-7-7-7-7-7-7-7-7|-5-5-5-5-5-5-5-5|
|-5-5-5-5-5-5-5-5|-5-5-5-5-5-5-5-5-|-5-5-5-5-5-5-5-5|-5-5-5-5-5-5-5-5|
|----------------|-3-3-3-3-3-3-3-3-|----------------|-3-3-3-3-3-3-3-3|
| Guitar 2 (with slide)                                              |                               
|----------------|-----------------|----------------|----------------|
|----------------|-----------------|----------------|----------------|
|----------------|-----------------|----------------|----------------|
|-/7~~~~~~~---76|~~~~~~-----------|--/7~~~~~~~--76|~~~~~~----------|
|---7------------|-----------------|----7-----------|----------------|
|----------------|-----------------|----------------|----------------|
                 its a colder world                 its a colder world

  D                G                 D                G (mute)         
|----------------|-----------------|----------------|----------------|
|-7-7-7-7-7-7-7-7|-----------------|-7-7-7-7-7-7-7-7|----------------|
|-7-7-7-7-7-7-7-7|-----------------|-7-7-7-7-7-7-7-7|----------------|
|-7-7-7-7-7-7-7-7|-5-5-5-5-5-5-5-5-|-7-7-7-7-7-7-7-7|-5-5-5-5-5-5-5-5|
|-5-5-5-5-5-5-5-5|-5-5-5-5-5-5-5-5-|-5-5-5-5-5-5-5-5|-5-5-5-5-5-5-5-5|
|----------------|-3-3-3-3-3-3-3-3-|----------------|-3-3-3-3-3-3-3-3|
| Guitar 2 (with slide)                                              |                               
|----------------|-----------------|----------------|----------------|
|----------------|-----------------|----------------|----------------|
|----------------|-----------------|----------------|----------------|
|-/7~~~~~~~---76|~~~~~~-----------|--/7~~~~~~~--76|~~~~~~----------|
|---7------------|-----------------|----7-----------|----------------|
|----------------|-----------------|----------------|----------------|
                 its a colder world       

(the following is played with slide solo - work that out soon)

  E     E     B  G    D   A     E     E     B  G    D   A
|-----------------------------|-----------------------------|
|-------9--------12---7-------|-------9--------12---7-------|
|-------9--------12---7---2---|-------9--------12---7---2---|
|-------9--------12---7---2---|-------9--------12---7---2---|
|-2-----7-----9--10---5---0---|-2-----7-----9--10---5---0---|
|-0-----0-----7---------------|-0-----0-----7---------------|

  E     E     B  G    D   A     E     E     B  G    D   A
|-----------------------------|-----------------------------|
|-------9--------12---7-------|-------9--------12---7-------|
|-------9--------12---7---2---|-------9--------12---7---2---|
|-------9--------12---7---2---|-------9--------12---7---2---|
|-2-----7-----9--10---5---0---|-2-----7-----9--10---5---0---|
|-0-----0-----7---------------|-0-----0-----7---------------|

  B           Bb A G  E  G  E   B           Bb A G  E  G  E  
|-----------------------------|-----------------------------|
|-----------------------------|-----------------------------|
|-----------------------------|-----------------------------|
|-9-9-9-9-9-9-8-7-----------2-|-9-9-9-9-9-9-8-7-----------2-|
|-9-9-9-9-9-9-8-7--^-----^--2-|-9-9-9-9-9-9-8-7--^-----^--2-|
|-7-7-7-7-7-7-6-5--3--0--3--0-|-7-7-7-7-7-7-6-5--3--0--3--0-|

  B           Bb A G  E  G  E   B           Bb A G  E  G  E
|-----------------------------|-----------------------------|
|-----------------------------|-----------------------------|
|-----------------------------|-----------------------------|
|-9-9-9-9-9-9-8-7-----------2-|-9-9-9-9-9-9-8-7-----------2-|
|-9-9-9-9-9-9-8-7--^-----^--2-|-9-9-9-9-9-9-8-7--^-----^--2-|
|-7-7-7-7-7-7-6-5--3--0--3--0-|-7-7-7-7-7-7-6-5--3--0--3--0-|

  E     E     B  G    D   A     E     E     B  G    D   A
|-----------------------------|-----------------------------|
|-------9--------12---7-------|-------9--------12---7-------|
|-------9--------12---7---2---|-------9--------12---7---2---|
|-------9--------12---7---2---|-------9--------12---7---2---|
|-2-----7-----9--10---5---0---|-2-----7-----9--10---5---0---|
|-0-----0-----7---------------|-0-----0-----7---------------|

  E     E     B  G    D   A     E     E     B  G    D   A
|-----------------------------|-----------------------------|
|-------9--------12---7-------|-------9--------12---7-------|
|-------9--------12---7---2---|-------9--------12---7---2---|
|-------9--------12---7---2---|-------9--------12---7---2---|
|-2-----7-----9--10---5---0---|-2-----7-----9--10---5---0---|
|-0-----0-----7---------------|-0-----0-----7---------------|

Tabbed by [email protected]


Текст, аккорды и табулатура для песни "Colder World", исполняет "Echobrain".
Используемые в песне аккорды можно найти в разделе Как брать аккорды. Аккорды для шестиструнной гитары. Другие песни можно найти на нашем сайте, воспользовавшись алфавитным указателем вверху страницы.


 
Ошибка в тексте? Выделите ошибку и нажмите Ctrl+Enter