Hi this tab is 100% correct!
Cours:
G|---------------------
H|---------------------
A|----------5-5-5-7-5--  x 4
E|--3-3-5-5------------


  (Play the notes slower on the E part.
   You se its larger space between them)
G|-----------------------
H|-----------------------
A|------------5-5-5-7-5--  x 4
E|--3--3-5--5------------


Riff:
G|---------------------------------------------------
H|---------------------------------------------------
A|--------------7-7-7-7-7-7-5-5-5-5-5-5--------------  x 2
E|--5-5-5-5-5-5-------------------------5-5-5-5-5-5--



G|---------------------------------------------------
H|---------------------------------------------------
A|--------------------------2-2-2-2-2-2--------------  x 2
E|--2-2-2-2-2-2-0-0-0-0-0-0-------------2-2-2-2-2-2--


----------------------------------------------------------------------------


Cours:
G|---------------------
H|---------------------
A|----------5-5-5-7-5--  x 4
E|--3-3-5-5------------


  (Play the notes slower on the E part.
   You se its larger space between them)
G|-----------------------
H|-----------------------
A|------------5-5-5-7-5--  x 4
E|--3--3-5--5------------


Riff:
G|---------------------------------------------------
H|---------------------------------------------------
A|--------------7-7-7-7-7-7-5-5-5-5-5-5--------------  x 2
E|--5-5-5-5-5-5-------------------------5-5-5-5-5-5--



G|---------------------------------------------------
H|---------------------------------------------------
A|--------------------------2-2-2-2-2-2--------------  x 2
E|--2-2-2-2-2-2-0-0-0-0-0-0-------------2-2-2-2-2-2--


----------------------------------------------------------------------------


Cours:
G|---------------------
H|---------------------
A|----------5-5-5-7-5--  x 4
E|--3-3-5-5------------


  (Play the notes slower on the E part.
   You se its larger space between them)
G|-----------------------
H|-----------------------
A|------------5-5-5-7-5--  x 4
E|--3--3-5--5------------


Riff:
G|---------------------------------------------------
H|---------------------------------------------------
A|--------------7-7-7-7-7-7-5-5-5-5-5-5--------------  x 2
E|--5-5-5-5-5-5-------------------------5-5-5-5-5-5--



G|---------------------------------------------------
H|---------------------------------------------------
A|--------------------------2-2-2-2-2-2--------------  x 2
E|--2-2-2-2-2-2-0-0-0-0-0-0-------------2-2-2-2-2-2--

----------------------------------------------------------------------------
Download it and listning to the rhythm...


Текст, аккорды и табулатура для песни "800 Grader", исполняет "Ebba Gron".
Используемые в песне аккорды можно найти в разделе Как брать аккорды. Аккорды для шестиструнной гитары. Другие песни можно найти на нашем сайте, воспользовавшись алфавитным указателем вверху страницы.


 
Ошибка в тексте? Выделите ошибку и нажмите Ctrl+Enter