Artist: Easyworld
Title: You Make Me wanna Drink Bleach
Transcribed by Paul McCarthy

Ok now this is a version i got a couple of years back on a promo single
which is at least 100 times better than the one on the album cos thats
remix, however this is more like the live version so that can't be bad.

Intro

E----------------------------------------------------|
A-3-3-x-x-x-3-3-x-x-x-3-3-x-x-x----------------------|
D-5-5-x-x-x-5-5-x-x-x-5-5-x-x-x----------------------|
G-5-5-x-x-x-5-5-x-x-x-5-5-x-x-x----------------------|
B----------------------------------------------------|
e----------------------------------------------------|

Where I'v put the x's u can either just palm mute it or you can
quickly rake the strings back and forth cos thats what it sounds
he's doing

Verse

As above untill half way through when:

and you know when you're just hangin on thats enough
E------------------------3-3-3-3-----1-1-1-1--------3------------|
A-------3-3-3-3----------5-5-5-5-----3-3-3-3-----5--5------------|
D-------5-5-5-5----------5-5-5-5-----3-3-3-3-----7--5------------|
G-------5-5-5-5----------------------------------7---------------|
B----------------------------------------------------------------|
e----------------------------------------------------------------|

Bridge

        Oh            I     Know
E---------------------------------------------------------|
A---------------------3--/--5-----------------------------|
D---------------------------------------------------------|
G---------------------5--/--7-----------------------------|
B---------------------------------------------------------|
e---------------------------------------------------------|
               ( / = slide up )

Chourus

E------------------------------------------------------|
A-3-3-3-3--8--8--8--8---5-5-5-5--10-10-10-10-----------|
D-5-5-5-5--10-10-10-10--7-7-7-7--12-12-12-12-----------|
G-5-5-5-5--10-10-10-10--7-7-7-7--12-12-12-12-----------|
B------------------------------------------------------|
e------------------------------------------------------|

Middle 8
 (So how does it Feel.....)
  =====    =====    =====    =====
E-1-1-1-1--3-3-3-3----------------------------------------------|
A-3-3-3-3--5-5-5-5--3-3-3-3--2-2-2-2----------------------------|
D-3-3-3-3--5-5-5-5--5-5-5-5--4-4-4-4----------------------------|
G-------------------5-5-5-5--4-4-4-4----------------------------|
B---------------------------------------------------------------|
e---------------------------------------------------------------|
  =====    =====    =====    =====
E-1-1-1-1--3-3-3-3--4-4-4-4--6-6-6-6-----------------------------------|
A-3-3-3-3--5-5-5-5--6-6-6-6--8-8-8-8-----------------------------------|
D-3-3-3-3--5-5-5-5--6-6-6-6--8-8-8-8-----------------------------------|
G----------------------------------------------------------------------|
B----------------------------------------------------------------------|
e----------------------------------------------------------------------|

Solo

E-------------------------------------------------------------------------------------|
A-3-5-7-5-3-8--7-5-8--7-5-2-3-5---3-5-7-5-3-8--7-5-10-12-10---------------------------|
D-------------------------------------------------------------------------------------|
G-5-7-9-7-5-10-9-7-10-9-7-4-5-7---5-7-9-7-5-10-9-7-12-14-12---------------------------|
B-------------------------------------------------------------------------------------|
e-------------------------------------------------------------------------------------|

Then it goes back to the chourus and so on
Any questions, Comments or corrections, please send to
[email protected]
Cheers, Paul


Текст, аккорды и табулатура для песни "You Make Me Wanna Drink Bleach", исполняет "Easyworld".
Используемые в песне аккорды можно найти в разделе Как брать аккорды. Аккорды для шестиструнной гитары. Другие песни можно найти на нашем сайте, воспользовавшись алфавитным указателем вверху страницы.


 
Ошибка в тексте? Выделите ошибку и нажмите Ctrl+Enter