Band: Early November
Song: Open Eyes

they sound right to me but this is my first tab so...

standard tuning

intro
e-----------------------------------------------------------------|
B-----------------------------------------------------------------|
G-------7---------7------7-----7-------7----------7---------------|
D-----7---7-----7------7-----7---7---7---7-(2x)---7---------------|
A---5---------------------------------------------5---------------|
E-----------5/7------5-----3-------3--------------3---------------|

verse
e-----------------------------------------------------------------|
B-----------------------------------------------------------------|
G--7-----7----7-7-7--7--------------------------------------------|
D--7-----7----7-7-7--7--------------------------------------------|
A--5-----x----x-x-x--5--------------------------------------------|
E--------5----7-5-0--3--------------------------------------------|

pre chorus
e-----------------------------------------------------------------|
B-----------------------------------------------------------------|
G--7-7-7---7-7-7---7-7-7------x-x-7-7-7---------------------------|
D--7-7-7---7-7-7---7-7-7------x-x-7-7-7---------------------------|
A--5-5-5---x-x-x---5-5-5------x-x-5-5-5---------------------------|
E----------5-5-5---3-3-3------x-x-3-3-3---------------------------|

chorus
e-----------------------------------------------------------------|
B-----------------------------------------------------------------|
G--7-7-7-7-7-7-7-7-7-7-7-7-7-7-7-7--------------------------------|
D--7-7-7-7-7-7-7-7-7-7-7-7-7-7-7-7--------------------------------|
A--x-x-x-x-x-x-x-x-x-x-x-x-x-x-x-x--------------------------------|
E--5-5-5-5-5-5-5-5-5-5-5-5-5-5-5-5--------------------------------|

e-----------------------------------------------------------------|
B-----------------------------------------------------------------|
G--7-7-7-7-7-7-7-7-7-7-7-7-7-7-7-7--------------------------------|
D--7-7-7-7-7-7-7-7-7-7-7-7-7-7-7-7--------------------------------|
A--5-5-5-5-5-5-5-5-5-5-5-5-5-5-5-5--------------------------------|
E--3-3-3-3-3-3-3-3-3-3-3-3-3-3-3-3--------------------------------|

bridge
e-----------------------------------------------------------------|
B-----------------------------------------------------------------|
G--7-------7-----7------------------------------------------------|
D--7-------7-----7------------------------------------------------|
A--5-------x-----x------------------------------------------------|
E----------7-----5------------------------------------------------|


Текст, аккорды и табулатура для песни "Open Eyes", исполняет "Early November".
Используемые в песне аккорды можно найти в разделе Как брать аккорды. Аккорды для шестиструнной гитары. Другие песни можно найти на нашем сайте, воспользовавшись алфавитным указателем вверху страницы.


 
Ошибка в тексте? Выделите ошибку и нажмите Ctrl+Enter