-------------------------------------------------------------------------------
	     I want to hear you sad - Early November
-------------------------------------------------------------------------------
Tabbed by: Colbuddy
Email: [email protected]

Tuning: drop D


OPENING
e|---------------------------------------------------------------------------|
B|---------------------------------------------------------------------------|
G|----------------6------------------6-------------------6-----------------6-|
D|---6---6---6-----------6---6---6-----------6---6---6---------6---6---6-----|
A|---------------------------------------------------------------------------|
D|-4---4---4---4-------4---4---4---4------/6---6---6---6-----6---6---6---6---|

VERSE 1

These eyes......
e|---------------------------------------------------------------------------|
B|---------------------------------------------------------------------------|
G|----------------6------------------6-------------------6-----------------6-|
D|---6---6---6-----------6---6---6-----------6---6---6---------6---6---6-----|
A|---------------------------------------------------------------------------|
D|-4---4---4---4-------4---4---4---4------/6---6---6---6-----6---6---6---6---|

We're Waiting......
e|---------------------------------------------------------------------------|
B|---------------------------------------------------------------------------|
G|-------5-------5----------5-------5-----------5------5-----------5-------5-|
D|---6-------6----------6-------6-----------6-------6----------6-------6-----|
A|---------------------------------------------------------------------------|
D|-4---4---4---4------4---4---4---4------/6---6---6---6------6---6---6---6---|

For sure........
e|---------------------------------------------------------------------------|
B|---------------------------------------------------------------------------|
G|---------------------------------------------------------------------------|
D|-11-4---------------------------------------------------------------------|
A|-11-4---------------------------------------------------------------------|
D|-11-4---------------------------------------------------------------------|
   (Slide slowly)

Chorus
For All Of This......
e|---------------------------------------------------------------------------|
B|---------------------------------------------------------------------------|
G|-6-6--666-6-6--6-6--666-6-6------------------------------------------------|
D|-6-6--666-6-6--6-6--666-6-6----4-4--444-4-4--4-4--444-4-4-----6-6--666-6-6-|
A|-4-4--444-4-4--4-4--444-4-4----4-4--444-4-4--4-4--444-4-4-----6-6--666-6-6-|
D|-------------------------------4-4--444-4-4--4-4--444-4-4-----6-6--666-6-6-|

e|---------------------------------------------------------------------------|
B|---------------------------------------------------------------------------|
G|---------------------------------------------------------------------------|
D|-6-6--666-6-6----4-4--444-4-4--4-4--444-4-4--------------------------------|
A|-6-6--666-6-6----4-4--444-4-4--4-4--444-4-4--------------------------------|
D|-6-6--666-6-6----4-4--444-4-4--4-4--444-4-4--------------------------------|

Verse 2
This Night......
e|---------------------------------------------------------------------------|
B|---------------------------------------------------------------------------|
G|----------------6------------------6-------------------6-----------------6-|
D|---6---6---6-----------6---6---6-----------6---6---6---------6---6---6-----|
A|---------------------------------------------------------------------------|
D|-4---4---4---4-------4---4---4---4------/6---6---6---6-----6---6---6---6---|

The Road......
e|---------------------------------------------------------------------------|
B|---------------------------------------------------------------------------|
G|-------5-------5----------5-------5-----------5------5-----------5-------5-|
D|---6-------6----------6-------6-----------6-------6----------6-------6-----|
A|---------------------------------------------------------------------------|
D|-4---4---4---4------4---4---4---4------/6---6---6---6------6---6---6---6---|

The Start.......
e|---------------------------------------------------------------------------|
B|---------------------------------------------------------------------------|
G|---------------------------------------------------------------------------|
D|-11-4---------------------------------------------------------------------|
A|-11-4---------------------------------------------------------------------|
D|-11-4---------------------------------------------------------------------|
   (Slide Slowly)

Chrous
For All Of This.......
e|---------------------------------------------------------------------------|
B|---------------------------------------------------------------------------|
G|-6-6--666-6-6--6-6--666-6-6------------------------------------------------|
D|-6-6--666-6-6--6-6--666-6-6----4-4--444-4-4--4-4--444-4-4-----6-6--666-6-6-|
A|-4-4--444-4-4--4-4--444-4-4----4-4--444-4-4--4-4--444-4-4-----6-6--666-6-6-|
D|-------------------------------4-4--444-4-4--4-4--444-4-4-----6-6--666-6-6-|

e|---------------------------------------------------------------------------|
B|---------------------------------------------------------------------------|
G|---------------------------------------------------------------------------|
D|-6-6--666-6-6----4-4--444-4-4--4-4--444-4-4--------------------------------|
A|-6-6--666-6-6----4-4--444-4-4--4-4--444-4-4--------------------------------|
D|-6-6--666-6-6----4-4--444-4-4--4-4--444-4-4--------------------------------|


Bridge
Every Day Goes.....
e|---------------------------------------------------------------------------|
B|---------------------------------------------------------------------------|
G|---------------------------------------------------------------------------|
D|-33-33-3333--44-44-4444----------------------------------------------------|
A|-33-33-3333--44-44-4444----------------------------------------------------|
D|-33-33-3333--44-44-4444----------------------------------------------------|

Chrous
For All Of This.......
e|---------------------------------------------------------------------------|
B|---------------------------------------------------------------------------|
G|-6-6--666-6-6--6-6--666-6-6------------------------------------------------|
D|-6-6--666-6-6--6-6--666-6-6----4-4--444-4-4--4-4--444-4-4-----6-6--666-6-6-|
A|-4-4--444-4-4--4-4--444-4-4----4-4--444-4-4--4-4--444-4-4-----6-6--666-6-6-|
D|-------------------------------4-4--444-4-4--4-4--444-4-4-----6-6--666-6-6-|

e|---------------------------------------------------------------------------|
B|---------------------------------------------------------------------------|
G|---------------------------------------------------------------------------|
D|-6-6--666-6-6----4-4--444-4-4--4-4--444-4-4--------------------------------|
A|-6-6--666-6-6----4-4--444-4-4--4-4--444-4-4--------------------------------|
D|-6-6--666-6-6----4-4--444-4-4--4-4--444-4-4--------------------------------|

| /  slide up
|   slide down
| h  hammer-on
| p  pull-off
| ~  vibrato
| +  harmonic
| x  Mute note

Any Corrections or feedback, e-mail me at [email protected]


Текст, аккорды и табулатура для песни "I Want To Hear You Sad", исполняет "Early November".
Используемые в песне аккорды можно найти в разделе Как брать аккорды. Аккорды для шестиструнной гитары. Другие песни можно найти на нашем сайте, воспользовавшись алфавитным указателем вверху страницы.


 
Ошибка в тексте? Выделите ошибку и нажмите Ctrl+Enter