Song: Dinner At The Money Table
Artist: The Early November
Album: The Room's To Cold (2003)
Tabbed by: Eric M. ([email protected])
Tunning: Half Step Down (eb Bb Gb Db Ab Eb)


This is the layout of the song in the right order. I'm pretty sure it's
perfect. But hey I'm only human so if you have any corrections or comments
send me an email to [email protected] If you like The Early November's 
acoustic stuff check out Nobody Knew at www.nobodyknew.tk.


h   - hammer on
p   - pull
( ) - optional note
~   - let ring out


Intro/Verse: (strumming) (x2)
	
eb|--0------------[4-2]------0------------0-----(0)-----------0------------
Bb|--0------------[0-0]------0------------0------3------------0------------
Gb|--2------------[2-2]------6------------7------2------------1------------
Db|--2------------[2-2]------6------------7-(or)-0------------2------------
Ab|--0------------[0-0]------4------------5------0------------2------------
Eb|--0------------[0-0]-----(0)-----------0------0------------0------------
	     [fill in only for the 1st time]	


Chorus: (strumming) (x1)
 
eb|-(0)---------0---------(0)---------0--------(0)--------0---------0------
Bb|--3----------0----------3----------0---------3---------0---------0------
Gb|--2----------2----------2----------2---------2---------2---------1------
Db|--0----------2----------0----------2---------0---------2---------2------
Ab|--0----------0----------0----------0---------0---------0---------2------
Eb|--0----------0----------0----------0---------0---------0---------0------


Verse 2: (strumming) (x2) 

eb|--0-----------------0-----------------0h2p0h2p0------------------0------
Bb|--0-----------------0-----------------3-3-3-3-3------------------0------
Gb|--2-----------------6-----------------2-2-2-2-2------------------1------
Db|--2-----------------6-----------------0-0-0-0-0------------------2------
Ab|--0-----------------4-----------------0-0-0-0-0------------------2------
Eb|--0----------------(0)----------------0-0-0-0-0------------------0------
     [ The second time he pulls on and off a different note for the   ]
     [ D chord twice. Instead of 0 he puts in 2 on the high e string. ]
     [ You should be able to hear it to understand better.	      ]	     	


Chorus: (strumming) (x1)
 
eb|-(0)---------0---------(0)---------0--------(0)--------0---------0------
Bb|--3----------0----------3----------0---------3---------0---------0------
Gb|--2----------2----------2----------2---------2---------2---------1------
Db|--0----------2----------0----------2---------0---------2---------2------
Ab|--0----------0----------0----------0---------0---------0---------2------
Eb|--0----------0----------0----------0---------0---------0---------0------


Interlude: (strumming) (x1) [same thing as chorus]
 
eb|-(0)---------0---------(0)---------0--------(0)--------0---------0------
Bb|--3----------0----------3----------0---------3---------0---------0------
Gb|--2----------2----------2----------2---------2---------2---------1------
Db|--0----------2----------0----------2---------0---------2---------2------
Ab|--0----------0----------0----------0---------0---------0---------2------
Eb|--0----------0----------0----------0---------0---------0---------0------


Last Chorus: (strumming) (x1)
 
eb|-(0)---------0---------(0)---------0--------(0)--------0---------0------
Bb|--3----------0----------3----------0---------3---------0---------0------
Gb|--2----------2----------2----------2---------2---------2---------1------
Db|--0----------2----------0----------2---------0---------2---------2------
Ab|--0----------0----------0----------0---------0---------0---------2------
Eb|--0----------0----------0----------0---------0---------0---------0------
 

Outro: (x1)
 
eb|-(0)~---------0~---------(0)~---------0~--------(0)~--------0~----------
Bb|--3~----------0~----------3~----------0~---------3~---------0~----------
Gb|--2~----------2~----------2~----------2~---------2~---------2~----------
Db|--0~----------2~----------0~----------2~---------0~---------2~----------
Ab|--0~----------0~----------0~----------0~---------0~---------0~----------
Eb|--0~----------0~----------0~----------0~---------0~---------0~----------


End On:
 
eb|---------------
Bb|----------0~---
Gb|--------1------
Db|------2--------
Ab|----2----------
Eb|--0------------

LYRICS:

I've got a day and a reason 
Why I should not believe in..anything, anymore
What's this for?
My time well spent
I've got all these memories that I cannot believe in 
Cause I don't know where I've been all these years
All these years

And do you know this reason
I hope that you can see it cause I will not give up 
And we all know what you've done again
I can see right through you
You're making your way over again..again

Two days after leaving and I don't have a reason to keep you from being here
I don't steer these thoughts away
I know that you know this but I could never get you to believe all my fears 
Is this your clear?
I think so

And do you know this reason
I hope that you can see it cause I will not give up 
and we all know what you've done again
I can see right through you
You're making your way over again..again..again..and again

And do you know this reason? 
I hope that you can see it cause I will not give up
And we all know what you've done again
I can see right through you
You're making your way over again..again..again 

And do you know this reason? 
I hope that you can see it. 
Cause I will not give up and we all know what you've done again
I can see right through you
You're making your way over again...


Текст, аккорды и табулатура для песни "Dinner At The Money le", исполняет "Early November".
Используемые в песне аккорды можно найти в разделе Как брать аккорды. Аккорды для шестиструнной гитары. Другие песни можно найти на нашем сайте, воспользовавшись алфавитным указателем вверху страницы.


 
Ошибка в тексте? Выделите ошибку и нажмите Ctrl+Enter