Hi there. This is a really cool music. I hope you enjoy it
NEW KID IN TOWN
(Don Henley/Glenn Frey/J.D.Souther)
Eagles's live
Recorded at October 22nd, 1976, at The Forum, Los Angeles
Trancribed by Luнs Graзa [email protected]


I hope this transcription will help some of you who likes this fantastic song. Any coments or corrections are welcome.

Pattern 1
|------------------------------------------------------|
|-----9-9-----9-9--------------------------------------|
|---7-------7-----7--9-9----9-9----7-7----9-9--7-9-9---|
|---------7---------7----5-7---7-5----5-7-----7--------|

Pattern 2
|------------------6-----------6-----------6-----6---------|
|------------6-5-4---6---6-5-4---6---6-5-4-----4---4-------|
|----6-6-5-4-----------4-----------4---------4---------9---|
|---4------------------------------------------------7-----|

Pattern 3
|-----------------------------------------------------------------------|
|---7-6-----------------------9-9-----9-9-------------------------11-11-|
|-------9-7---9-9-----9-9---7-------7-----7---9-9----9-9--11-11--9------|
|-----------7-----5-7-----7-------7---------7-----5-7----9------9-------|

|---------------------7-7---|
|-----------------4-5-------|
|---9---7-7---5-7-----------|
|-----5-----5---------------|

Pattern 4
|-------7-7------------------------7---|
|-----5----5-7---7-----5-----7---5-----|
|---5----------5---5-3---3-5---3-------|
|--------------------------------------|

Pattern 5
|--------------------9--------------9--------------9-----9---|
|--------------9-8-7----------9-8-7----------9-8-7-----7-----|
|-----9-10-9-7---------10-9-7---------10-9-7---------7-------|
|---7--------------------------------------------------------|

Pattern 6
|-----------------------------------|
|-------------------------2---4-----|
|---------6-7-7-----6---0---2---2---|
|---7-7-9-------2-4---4-------------|

Pattern 7
|----------------------------|
|-----9----9-----6-----6-----|
|---7----7---7-4-----4---6---|
|------7-----------4---------|



Текст, аккорды и табулатура для песни "New Kid In Town", исполняет "Eagles".
Используемые в песне аккорды можно найти в разделе Как брать аккорды. Аккорды для шестиструнной гитары. Другие песни можно найти на нашем сайте, воспользовавшись алфавитным указателем вверху страницы.


Слушать онлайн New Kid In Town


EaglesNew Kid In Town на Яндекс.Музыке


 
Ошибка в тексте? Выделите ошибку и нажмите Ctrl+Enter