xxxxxxxxxxxxxxxxxxxxxxxxxxxxxxxxxxxxxxxxxxxxxxxxxxxxxxxxxxxxxxxxxxxxxx
                      !!! IMPROVED VERSION !!!
Song = Love Will Keep Us Alive
Artist = Eagles
Album = Hell Freezes Over
Lyrics = P.Vale/J.Capaldi/P.Carrack

Tabbed by W.Mitty (05/01/01)


I don't claim this is 100% perfect but its how I play it...

Key:   |= bar lines (not accurate,only use as guide)
       = slide down     0:14= CD time

A Major (F# minor)
Tempo = 50
                              0:14  
G--------|----------|----------|--------|--------|----------|---------
D--------|--24--4-4-|-4--0-0-|-2--2---|--------|--24--4-4-|-0--0-0--
A-0--0-0-|-4--------|----------|--------|-0--0-0-|-4--------|---------
E--------|----------|----------|------0-|--------|----------|---------


        0:39
         |Fig 1..  ..   ..   ..   ..   ..  ..end fig 1|
G--------|--------|----------|---------------|--------|--------|
D-2--2-2-|--------|--24--4-4-|-4----02-2---|---(7-7)|--------|
A--------|-0--0-0-|-4--------|---------------|-0--0-0-|-0--0-0-|
E--------|--------|----------|---------------|--------|--------|
                                                  ^ ^
                                                 (V2 uses
                                                 high A)

                            1:18
G----------|--------|--------|-------|------------|----------|--------
D--24--4-4|-0--0-0-|-2------|-Fig 1-|-----0--0-0-|-024--4-4-|4-------
A-4--------|--------|--------|-------|-2-4--------|----------|--2--2-2
E----------|--------|----0-0-|-------|------------|----------|--------


              1:57
G--------------|-----------|-----------|----------|----------|--------
D--02--0-------|-Fig 1-----|-4-0-------|--24--4-4-|-4--0-0-|--------
A-4-------4--2-|---V2------|----0--0-0-|-4--------|----------|-0--0-0-
E--------------|-----------|-----------|----------|----------|--------


                       2:44
G------------|----------|----------|--------------|--------|----------
D-----0--0-0-|-244--4-4-|-40-------|--02--0-------|--------|--24--4-4-
A-2-4--------|----------|---2--2-2-|-4-------4--2-|-0--0-0-|-4--------
E------------|----------|----------|--------------|--------|----------


                   3:13                3:24
G----------|--------|--------|----------|------------|---------|
D-4--0-0-|-2--2---|--------|--24--4-4-|-4---02-2-|------24-|
A----------|--------|-0--0-0-|-4--------|------------|-0---4---|
E----------|------0-|--------|----------|------------|---------|
                                                 


G------------|---------|------------|--------|----------------------
D-4---02---|------24-|-4-----2--|--------|----------------------
A------------|-0---4---|------------|-0--0-0-|-0------0-------------
E----------0-|---------|------------|--------|----------------------
                                                      ^
                                                   Late, with cymbal
        

(Printing: load into Notepad, set left & right margins to
10mm and print.)


Текст, аккорды и табулатура для песни "Love Will Keep Us Alive", исполняет "Eagles".
Используемые в песне аккорды можно найти в разделе Как брать аккорды. Аккорды для шестиструнной гитары. Другие песни можно найти на нашем сайте, воспользовавшись алфавитным указателем вверху страницы.


Слушать онлайн Love Will Keep Us Alive (In the Style of Eagles) - Single


Done AgainLove Will Keep Us Alive (In the Style of Eagles) - Single на Яндекс.Музыке


 
Ошибка в тексте? Выделите ошибку и нажмите Ctrl+Enter