E ------|-------7--------------|-7---0-|---0-2-0-9-2-0-|---|---0-5-0-7
B ------|-----7----------7---3-|---3-------|---|----------
G ------|---7-----4----4---4---|-------|-3-------------|-3-|-2--------
D ------12---------|---|----------
A ------|-2--------------------|---|----------
E -----------------|---|----------

E ----|---0-5---0-5-|---2---2-------|-7-|-------3-------|-7-------|---
B -10---|-----3---3-0---|---|---3-0---3-----|-------3-|-3-
G ----|-2-----------|-1-----------1-|---|-0---------4-0-|---0-2---|---
D ----|-------2---------|-------|---------|-0-
A ----------|-------|---------|---
E ----------|-------|---------|---

E 5-2---10-2---2-|---------3---3-|-7-----------|-----0---2
B ----3------3-|---3-----3---|---0-3-0---0---|---0-----0-3-|----------
G -------------------|-----7-------|---3---3--
D -------------|-4-----0-----|-2---------------|-4--------
A -------------------|-2-----2-----|----------
E ---------------------|----------

E -----|-9-7-------------|-7---0-|---0-2-0-9-2-0-|---|---0
B -5---|---|---------7---------7-----|---3-------|---|----
G ---3-|---|-------7-----4-7-4---4-7-|-------|-3-------------|-3-|-2--
D -----|---|-----9-------------------|---|----
A -----|---|---9---------------------|---|----
E -----|---|-7-----------------------|---|----

E -5-0-7----|---0-5---0-5-|---2---2-------|-7-|-------3-------|-7-----
B -------10---|-----3---3-----|---|---3-0---3-----|-------
G ----------|-2-----------|-1---------4-1-|---|-0---------4-0-|---0-2-
D ----------|-------2---------|-------|-------
A ----------------|-------|-------
E ----------------|-------|-------

E --|---5-2---10-2---2-|---------3---3-|-7-----------|----
B 3-|-3-----3------3-|---3-----3---|---0-3-0---0---|---0-----0-3-|----
G -------------|-----7-------|---3
D --|-0--------------|-4-----0-----|-2---------------|-4--
A -------------|-2-----2-----|----
E ---------------|----

E -0---2-----|-9-|---------2-----|-7---0-|---0-2-0-9-2-0-|---|---0-5-0
B -------5---|---|---0-3-0---0-3-|---3-------|---|--------
G ---3-----3-|-------|-------|-3-------------|-3-|-2------
D -----------|-------|---|--------
A -----------|---|-2-------------|---|--------
E -----------|-------|---|--------

E -7----|---0-5---0-5-|---2---2-------|-7-|-------3-------|-7-------|-
B ---10---|-----3---3-0---|---|---3-0---3-----|-------3-|-
G ------|-2-----------|-1-----------1-|---|-0---------4-0-|---0-2---|-
D ------|-------2---------|-------|---------|-
A ------------|-------|---------|-
E ------------|-------|---------|-

E --5-2---10-2---2-|---------3---3-|-7-----------|-----0--
B 3-----3------3-|---3-----3---|---0-3-0---0---|---0-----0-3-|--------
G ---------------------|-----7-------|---3---3
D 0--------------|-4-----0-----|-2---------------|-4------
A ---------------------|-2-----2-----|--------
E -----------------------|--------

E -2-----|-9-|-----2-2-|-----2-|-----6-|-----0-|-----0----
B ---5---|---|---3---|---3-----3---|---2---|---7---|---2---|---2-----2
G -----3-|---|-4-----|-4-----4-----|-3-----|-6-----|-2-----|-2-----2--
D -------|---|---------|-------|-------|-------|----------
A -------|---|---------|-------|-------|-------|----------
E -------|---|---------|-------|-------|-------|----------

E -0-|-------|-----0-----0-|---------|-------|-----2-|----
B ---|-----0-|---0-----0---|-----3-|-----3-----3-|-----3-|---3---|---8
G ---|---1---|-1-----1-----|---4---|---4-----4---|---2---|-2-----|-9--
D ---|-2-------|-5-----|-5-----5-----|-4-----|-------|----
A ---|---------|---------|-------|-------|----
E ---|---------|---------|-------|-------|----

E -7-|-----7-----7-|-----2-|-----6-|-------7-7-7-7-7-7-7-|-------7----
B ---|---8-----8---|---2---|---7---|-----8---8-8-8-8-8-8-|-----8-----8
G ---|-9-----9-----|-3-----|-6-----|---7-----7-7-7-7-7-7-|---7-----7--
D -----|-------|-------|-5-------------------|-5----------
A -----|--------------
E -----|--------------

E -7-|-------5-5-5-5-5-5-5-|-------5-----5-|-------6-6-6-6-6-6-6-|----
B ---|-----7---7-7-7-7-7-7-|-----7-----7---|-----7---7-7-7-7-7-7-|----
G ---|---7-----7-7-7-7-7-7-|---7-----7-----|---6-----6-6-6-6-6-6-|---6
D ---|-0-------------------|-0-------------|-4-------------------|-4--
A ---------------------------|----
E ---------------------------|----

E ---6-----6-|-------7-7-7-7-7-7-7-|-------7-----7-|-------7-7-7-7-7-7
B -7-----7---|-----7---7-7-7-7-7-7-|-----7-----7---|-----8---8-8-8-8-8
G -----6-----|---7-----7-7-7-7-7-7-|---7-----7-----|---7-----7-7-7-7-7
D -------------------------|-5----------------
A -----------|-2-------------------|-2--------------------
E --------------------------------

E -7-|-------7-----7-|-------5-5-5-5-5-5-5-|-------5-----5-|-------7-7
B -8-|-----8-----8---|-----7---7-7-7-7-7-7-|-----7-----7---|-----8---8
G -7-|---7-----7-----|---7-----7-7-7-7-7-7-|---7-----7-----|---9-----9
D ---|-5-------------|-0-------------------|-0-------------|-2--------
A ---------------------|----------
E ---------------------|----------

E -7-7-7-7-7-|-------7-----7-|-------6-6-6-6-6-6-6-|-------6-----6-|--
B -8-8-8-8-8-|-----8-----8---|-----7---7-7-7-7-7-7-|-----7-----7---|--
G -9-9-9-9-9-|---9-----9-----|---6-----6-6-6-6-6-6-|---6-----6-----|--
D -----------|-2-------------|-4-------------------|-4-------------|--
A -----------------------------|-2
E -----------------------------|--

E -------2-----|-7---0-|---0-2-0-9-2-0-|---|---0-5-0-7----|---0-5---0-
B -0-3-0---0-3-|---3-------|---10-
G -------------|-------|-3-------------|-3-|-2------------|-2---------
D -------------|------|-------2---
A -------------|------
E -------------|------

E 5-|---2---2-------|-7-|-------3-------|-7-------|---5-2---10-2---|--
B --|-----3---3-0---|---|---3-0---3-----|-------3-|-3-----3------3-|--
G --|-1-----------1-|---|-0---------4-0-|---0-2--------|--
D ------|-------|---------|-0--------------|-4
A ------|----------|--
E ------|----------|--

E ---2-----2-|---------3---3-|-7-----------|-----0---2-----|-9-|-----2
B -3-----3---|---0-3-0---0---|---0-----0-3-5---|---|---3--
G ---------------|-----7-------|---3---3-----3-|---|-4----
D -----0-----|-2---------------|-4-------------|---|------
A ---------------|-2-----2---------|---|------
E ---------------------|---|------

E -2-|-----2-|-----6-|-----0-|-----0-----0-|-------|-----0
B -|---3-----3---|---2---|---7---|---2---|---2-----2---|-----0-|---0--
G -|-4-----4-----|-3-----|-6-----|-2-----|-2-----2-----|---1---|-1----
D ---|-------|-------|---------|-2-----|------
A ---|-------|-------|---------|-------|------
E ---|-------|-------|---------|-------|------

E -----0-|---------|-------|-----2-|-----7-|-----7-----7-|
B ---0---|-----3-|-----3-----3-|-----3-|---3---|---8---|---8-----8---|
G -1-----|---4---|---4-----4---|---2---|-2-----|-9-----|-9-----9-----|
D -------|-5-----|-5-----5-----|-4-----|-------|---------|
A -------|---------|-------|-------|---------|
E -------|---------|-------|-------|---------|

E -----2-|-----6-|-------7-7-7-7-7-7-7-|-------7-----7-|-------5-5-5-5
B ---2---|---7---|-----8---8-8-8-8-8-8-|-----8-----8---|-----7---7-7-7
G -3-----|-6-----|---7-----7-7-7-7-7-7-|---7-----7-----|---7-----7-7-7
D -------|-------|-5-------------------|-5-------------|-0------------
A --------------------
E --------------------

E -5-5-5-|-------5-----5-|-------6-6-6-6-6-6-6-|-------6-----6-|------
B -7-7-7-|-----7-----7---|-----7---7-7-7-7-7-7-|-----7-----7---|-----7
G -7-7-7-|---7-----7-----|---6-----6-6-6-6-6-6-|---6-----6-----|---7--
D -------|-0-------------|-4-------------------|-4-------------|------
A -------------------------|-2----
E -------------------------|------

E -7-7-7-7-7-7-7-|-------7-----7-|-------7-7-7-7-7-7-7-|-------7-----7
B ---7-7-7-7-7-7-|-----7-----7---|-----8---8-8-8-8-8-8-|-----8-----8--
G ---7-7-7-7-7-7-|---7-----7-----|---7-----7-7-7-7-7-7-|---7-----7----
D -------------------|-5-------------------|-5------------
A ---------------|-2--------------------------
E --------------------------------

E -|-------5-5-5-5-5-5-5-|-------5-----5-|-------7-7-7-7-7-7-7-|------
B -|-----7---7-7-7-7-7-7-|-----7-----7---|-----8---8-8-8-8-8-8-|-----8
G -|---7-----7-7-7-7-7-7-|---7-----7-----|---9-----9-9-9-9-9-9-|---9--
D -|-0-------------------|-0-------------|-2-------------------|-2----
A -------------------------|------
E -------------------------|------

E -7-----7-|-------6-|------|-------7-------------|-7---0-|---0-2-0-9-
B -----8---|-----7---|------|-----7-------0-7---3-|---3---
G ---9-----|---6-----|------|---7-----4-7-----4---|-------|-3---------
D ---------|-4------------|-------
A ---------|---------|------|-2-------------------|-------
E ---------|--------------|-------

E 2-0-|---|---0-5-0-7----|---0-5---0-5-|---2---2-------|-7-|-------3--
B ----|---10---|-----3---3-0---|---|---3-0---3
G ----|-3-|-2------------|-2-----------|-1-----------1-|---|-0--------
D ----|------|-------2---------|---|----------
A -----|---|----------
E -----|---|----------

E -----|-7-------|---5-2---10-2---2-|---------3---3-|-7---
B -----|-------3-|-3-----3------3-|---3-----3---|---0-3-0---0---|---0-
G -4-0-|---0-2--------------|-----
D -----|---------|-0--------------|-4-----0-----|-2-------------|-----
A --------------|-2---
E --------------|-----

E --------|-----0---2-----|-9-|-----2-2-|-----2-|-----6-|-
B ----0-3-5---|---|---3---|---3-----3---|---2---|---7---|-
G 7-------|---3---3-----3-|---|-4-----|-4-----4-----|-3-----|-6-----|-
D --------|-4-------------|---|---------|-------|-------|-
A --2---------|---|---------|-------|-------|-
E ------------|---|---------|-------|-------|-

E ----0-|-----0-----0-|-------|-----0-----0-|---------|---
B --2---|---2-----2---|-----0-|---0-----0---|-----3-|-----3-----3-|---
G 2-----|-2-----2-----|---1---|-1-----1-----|---4---|---4-----4---|---
D --------|-2-------|-5-----|-5-----5-----|-4-
A --------|---------|---------|---
E --------|---------|---------|---

E ----|-----2-|-----7-|-----7-----7-|-------6-|-6-6-|-------7-7-7-7-7-
B --3-|---3---|---8---|---8-----8---|-----7---|-7-7-|-----7---7-7-7-7-
G 2---|-2-----|-9-----|-9-----9-----|---6-----|-6-6-|---7-----7-7-7-7-
D ----|-------|---------|-4-------|-4-4-------
A ----|-------|---------|---------|-----|-2---------------
E ----|-------|---------|---------

E 7-7-|-------7-----7-|-------6-6-6-6-6-6-6-|-------6-----6-|-------5-
B 7-7-|-----7-----7---|-----7---7-7-7-7-7-7-|-----7-----7---|-----5---
G 7-7-|---7-----7-----|---6-----6-6-6-6-6-6-|---6-----6-----|---6-----
D --------|-4-------------------|-4-------------|-7-------
A ----|-2---------------------------|---------
E ----------------------|---------

E 5-5-5-5-5-5-|-------5-----5-|-------7-7-7-7-7-7-7-|-------7-----7-|-
B 5-5-5-5-5-5-|-----5-----5---|-----9---9-9-9-9-9-9-|-----9-----9---|-
G 6-6-6-6-6-6-|---6-----6-----|---7-----7-7-7-7-7-7-|---7-----7-----|-
D ------------|-7-------------|-2-------------------|-2-------------|-
A ------------------------------|-
E ------------------------------|-

E ------7-7-7-7-7-7-7-|-------7-----7-|-------5-5-5-5-5-5-5-|-------5-
B ----8---8-8-8-8-8-8-|-----8-----8---|-----7---7-7-7-7-7-7-|-----7---
G --7-----7-7-7-7-7-7-|---7-----7-----|---7-----7-7-7-7-7-7-|---7-----
D 5-------------------|-5-------------|-0-------------------|-0-------
A ----------------------------------|---------
E ----------------------------------|---------

E ----5-|-------7-7-7-7-7-7-7-|-------7-----7-|-------6-6-6-6-6-6-6-|-
B --7---|-----8---8-8-8-8-8-8-|-----8-----8---|-----7---7-7-7-7-7-7-|-
G 7-----|---9-----9-9-9-9-9-9-|---9-----9-----|---6-----6-6-6-6-6-6-|-
D ------|-2-------------------|-2-------------|-4-------------------|-
A ------------------------------|-
E ------------------------------|-

E ------6-----6-|-------7-7-7-7-7-7-7-|-------7-----7-|-------6-6-6-6-
B ----7-----7---|-----7---7-7-7-7-7-7-|-----7-----7---|-----7---7-7-7-
G --6-----6-----|---7-----7-7-7-7-7-7-|---7-----7-----|---6-----6-6-6-
D 4---------------------------|-4-------------
A --------------|-2-------------------|-2-----------------
E --------------------------------

E 6-6-6-|-------6-----6-|-------5-5-5-5-5-5-5-|-------5-----5-|-------
B 7-7-7-|-----7-----7---|-----5---5-5-5-5-5-5-|-----5-----5---|-----9-
G 6-6-6-|---6-----6-----|---6-----6-6-6-6-6-6-|---6-----6-----|---7---
D ------|-4-------------|-7-------------------|-7-------------|-2-----
A ------------------------|-------
E ------------------------|-------

E 7-7-7-7-7-7-7-|-------7-----7-|-------7-7-7-7-7-7-7-|-------7-----7-
B --9-9-9-9-9-9-|-----9-----9---|-----8---8-8-8-8-8-8-|-----8-----8---
G --7-7-7-7-7-7-|---7-----7-----|---7-----7-7-7-7-7-7-|---7-----7-----
D --------------|-2-------------|-5-------------------|-5-------------
A --------------------------------
E --------------------------------

E |-------5-5-5-5-5-5-5-|-------5-----5-|-------7-7-7-7-7-7-7-|-------
B |-----7---7-7-7-7-7-7-|-----7-----7---|-----8---8-8-8-8-8-8-|-----8-
G |---7-----7-7-7-7-7-7-|---7-----7-----|---9-----9-9-9-9-9-9-|---9---
D |-0-------------------|-0-------------|-2-------------------|-2-----
A ------------------------|-------
E ------------------------|-------

E 7-----7-|-------6-6-6-6-6-6-6-|-------6-----6-|-------7-7-7-7-7-7-7-
B ----8---|-----7---7-7-7-7-7-7-|-----7-----7---|-----7---7-7-7-7-7-7-
G --9-----|---6-----6-6-6-6-6-6-|---6-----6-----|---7-----7-7-7-7-7-7-
D --------|-4-------------------|-4-----------------------
A ----------------------|-2-------------------
E --------------------------------

E |-------7-----7-|-------6-6-6-6-6-6-6-|-------6-----6-|-------5-5-5-
B |-----7-----7---|-----7---7-7-7-7-7-7-|-----7-----7---|-----5---5-5-
G |---7-----7-----|---6-----6-6-6-6-6-6-|---6-----6-----|---6-----6-6-
D ----|-4-------------------|-4-------------|-7-----------
A |-2-----------------------------
E --------------------

E 5-5-5-5-|-------5-----5-|-------7-7-7-7-7-7-7-|-------7-----7-|-----
B 5-5-5-5-|-----5-----5---|-----9---9-9-9-9-9-9-|-----9-----9---|-----
G 6-6-6-6-|---6-----6-----|---7-----7-7-7-7-7-7-|---7-----7-----|---7-
D --------|-7-------------|-2-------------------|-2-------------|-5---
A --------------------------|-----
E --------------------------|-----

E --7-7-7-7-7-7-7-|-------7-----7-|-------5-5-5-5-5-5-5-|-------5-----
B 8---8-8-8-8-8-8-|-----8-----8---|-----7---7-7-7-7-7-7-|-----7-----7-
G ----7-7-7-7-7-7-|---7-----7-----|---7-----7-7-7-7-7-7-|---7-----7---
D ----------------|-5-------------|-0-------------------|-0-----------
A --------------------------------
E --------------------------------

E 5-|-------7-7-7-7-7-7-7-|-------7-----7-|-------6-6-6-6-6-6-6-|-----
B --|-----8---8-8-8-8-8-8-|-----8-----8---|-----7---7-7-7-7-7-7-|-----
G --|---9-----9-9-9-9-9-9-|---9-----9-----|---6-----6-6-6-6-6-6-|---6-
D --|-2-------------------|-2-------------|-4-------------------|-4---
A --------------------------|-----
E --------------------------|-----

E --6-----6-|-------7-7-7-7-7-7-7-|-------7-----7-|-------6-6-6-6-6-6-
B 7-----7---|-----7---7-7-7-7-7-7-|-----7-----7---|-----7---7-7-7-7-7-
G ----6-----|---7-----7-7-7-7-7-7-|---7-----7-----|---6-----6-6-6-6-6-
D ------------------------|-4-----------------
A ----------|-2-------------------|-2---------------------
E --------------------------------

E 6-|-------6-----6-|-------5-5-5-5-5-5-5-|-------5-----5-|-------7-7-
B 7-|-----7-----7---|-----5---5-5-5-5-5-5-|-----5-----5---|-----9---9-
G 6-|---6-----6-----|---6-----6-6-6-6-6-6-|---6-----6-----|---7-----7-
D --|-4-------------|-7-------------------|-7-------------|-2---------
A --------------------
E --------------------

E 7-7-7-7-7-|-------7-----7-|-------7-7-7-7-7-7-7-|-------7-----7-|---
B 9-9-9-9-9-|-----9-----9---|-----8---8-8-8-8-8-8-|-----8-----8---|---
G 7-7-7-7-7-|---7-----7-----|---7-----7-7-7-7-7-7-|---7-----7-----|---
D ----------|-2-------------|-5-------------------|-5-------------|-0-
A ----------------------------|---
E ----------------------------|---

E ----5-5-5-5-5-5-5-|-------5-----5-|-------7-7-7-7-7-7-7-|-------7---
B --7---7-7-7-7-7-7-|-----7-----7---|-----8---8-8-8-8-8-8-|-----8-----
G 7-----7-7-7-7-7-7-|---7-----7-----|---9-----9-9-9-9-9-9-|---9-----9-
D ------------------|-0-------------|-2-------------------|-2---------
A --------------------------------
E --------------------------------

E --7-|-------6-6-6-6-6-6-6-|-------6-----6-|-------7-7-7-7-7-7-7-|---
B 8---|-----7---7-7-7-7-7-7-|-----7-----7---|-----7---7-7-7-7-7-7-|---
G ----|---6-----6-6-6-6-6-6-|---6-----6-----|---7-----7-7-7-7-7-7-|---
D ----|-4-------------------|-4-----------------------|---
A ------------------|-2-------------------|-2-
E ----------------------------|---

E ----7-----7-|-------6-6-6-6-6-6-6-|-------6-----6-|-------5-5-5-5-5-
B --7-----7---|-----7---7-7-7-7-7-7-|-----7-----7---|-----5---5-5-5-5-
G 7-----7-----|---6-----6-6-6-6-6-6-|---6-----6-----|---6-----6-6-6-6-
D ------------|-4-------------------|-4-------------|-7---------------
A --------------------------------
E --------------------------------

E 5-5-|-------5-----5-|-------7-7-7-7-7-7-7-|-------7-----7-|-------7-
B 5-5-|-----5-----5---|-----9---9-9-9-9-9-9-|-----9-----9---|-----8---
G 6-6-|---6-----6-----|---7-----7-7-7-7-7-7-|---7-----7-----|---7-----
D ----|-7-------------|-2-------------------|-2-------------|-5-------
A ----------------------|---------
E ----------------------|---------

E 7-7-7-7-7-7-|-------7-----7-|-------5-5-5-5-5-5-5-|-------5-----5-|-
B 8-8-8-8-8-8-|-----8-----8---|-----7---7-7-7-7-7-7-|-----7-----7---|-
G 7-7-7-7-7-7-|---7-----7-----|---7-----7-7-7-7-7-7-|---7-----7-----|-
D ------------|-5-------------|-0-------------------|-0-------------|-
A ------------------------------|-
E ------------------------------|-

E ------7-7-7-7-7-7-7-|
B ----8---8-8-8-8-8-8-|
G --9-----9-9-9-9-9-9-|
D 2-------------------|
A --------------------|
E --------------------|


Текст, аккорды и табулатура для песни "Hotel California", исполняет "Eagles".
Используемые в песне аккорды можно найти в разделе Как брать аккорды. Аккорды для шестиструнной гитары. Другие песни можно найти на нашем сайте, воспользовавшись алфавитным указателем вверху страницы.


Слушать онлайн Hotel California


The EaglesHotel California на Яндекс.Музыке


 
Ошибка в тексте? Выделите ошибку и нажмите Ctrl+Enter