Вступление:
e|----------------------------------|
H|--------------------------------8-|
G|-10-9-7----7--10-9-7----7--9-10---|
D|--------10-----------10-----------|
A|----------------------------------|
E|----------------------------------|

e|----------------------------------|
H|--------------------------------8-|
G|-10-9-7----7--10-9-7----7--9-10---|
D|--------10-----------10-----------|
A|----------------------------------|
E|----------------------------------|

e|----------------------------------|
H|-8---------8----------------------|
G|---10-9-7----10-9-7---------------|
D|----------------------------------|
A|----------------------------------|
E|----------------------------------|

   Dm                 
Я каждый новый вечер раскрываю крыля, плечи
 B                   C
Без тени сомненья тебя сегодня встречу, и ты меня заметишь
        B                    A
Но под силою волненья превращаюсь в тень.

И ты проходишь рядом, тебя я обнимаю взглядом
Я бы докоснулась, но ты меня не знаешь, о другой мечтаешь
Бесконечным будет завтра снова новый день... 

	      Gm        Dm       Gm               Dm
	Мне многого не надо, коснуться только взглядом
	    C        Gm              A
	До кончиков ресниц твоих на несколько секунд.
	   Gm        Dm     Gm            Dm
	Тебя я заколдую, тебя ко всем ревную,
	    C               Gm        A                     Dm
	Но может быть по взгляду прочтешь и отобьется твое сердце вдруг.

Быть может я невзрачна, мечты мои прозрачны
Но я в них упрямо верю, томится в моем теле и пульсом бьет по вене
Безрассудные желанья быть всега твоей..

В толпе тебя я вижу, себя вдруг ненавижу
Захлебнется ночь водой, все будто так и было, любить себя забыла
Но будь проклят день когда встретилась с тобой

	Припев    > 3 раза
	
	
	        
Комментарий автора: Вступление вообще расчитано не на 1 гитару.. так что я укороченную написал)

Текст, аккорды и табулатура для песни "Вижу тебя", исполняет "Душа".
Используемые в песне аккорды можно найти в разделе Как брать аккорды. Аккорды для шестиструнной гитары. Другие песни можно найти на нашем сайте, воспользовавшись алфавитным указателем вверху страницы.


 
Ошибка в тексте? Выделите ошибку и нажмите Ctrl+Enter