Bob Dylan
Like a Rolling Stone
Originally From Highway 61 Revisited
Transcribed by Oscar (aka The Lizard King)


There isn't much Dylan bass tab and this is a good song so
here it is...Like a Rolling Stone


Intro just vamp on a C chord


Verses- Once upon a time you dressed so fine...etc

Chords-C     Dm7  Em       F  	  G        G7
G----------------------------------------------------------------
D------------------2---2---3---3--5-5-5-5--5-5-5-5---------------
A------3---3--5--5-----------------------------------------------Repeat Once
E----------------------------------------------------------------
Rhythm-1(2)+ 3(4)+ 1(2)+   3(4)+  1 2 3 4  1 2 3 4


       you  laugh    Evry Hangin
Chords-F    G        F    G
G----------------------------------------------------------------
D------3333-5555-----3333-5555-----------------------------------
A----------------------------------------------------------------
E----------------------------------------------------------------
Rhythm-1234 1234     1234 1234



Chords-F  Em Dm7 C   F  Em Dm7  C   Dm F  G   G7
G----------------------------------------------------------------
D------33-22---------33-22------------33-5-5-5555------------------
A------------5---3----------5---3---55------------------------------
E----------------------------------------------------------------
Rhy.- 12 34  1(2)+34 12 34  1(2)+34 1234 1 2 3+4+



How does it feel
    Chorus-  C         F   G        Repeat a few times
    G--------5-5-5-5-------------------------------------------------
    D------------------3-3-5-5---------------------------------------
    A----------------------------------------------------------------
    E----------------------------------------------------------------
Rhythm-     1 2 3 4    1 2 3 4



This is not an exact transcription but an outline
i mean just look at the chords to see what notes you want to play
listen to the song also especially in the chorus.
-0scar
[email protected]


Текст, аккорды и табулатура для песни "Like A Rolling Stone", исполняет "Dylan Bob".
Используемые в песне аккорды можно найти в разделе Как брать аккорды. Аккорды для шестиструнной гитары. Другие песни можно найти на нашем сайте, воспользовавшись алфавитным указателем вверху страницы.


 
Ошибка в тексте? Выделите ошибку и нажмите Ctrl+Enter