5 string bass in standard tuning...
...last time i sent this in it wasnt
quite 100% so i perfected it... enjoy


G|--------------------------------
D|--------------------------------
A|--------------------------------
E|--5-----5-----5-----------------
B|----343---343---343----666-777--

G|---------------------------------------------
D|---------------------------------------------
A|--------------------66-------------55556666--
E|---------------------------------------------
B|--3-3-3-3-3-3-3-3-3----3-3-3-3-3-3-----------

G|------------------------------------
D|------------------------------------
A|--5555666655554444555566665555------
E|------------------------------------
B|-------------------------------6~---

G|------------------|---------------
D|------------------|---------------
A|------------------|---------------
E|------------------|---------------
B|--7-6-4~--7-6-3~--|--6p-7p-6p-7p--

G|-----------------------------------|--------------
D|-----------------------------------|--------------
A|-----------------------------------|--------------
E|-----------------------------------|--------------
B|--4444444444-77-66-333333333-77-66-|--6p-7p-6p-7p-

G|-------------------|-------------------
D|-------------------|-------------------
A|-------------------|-------------------
E|-------------------|-------------------
B|--6666-7-4444-6-3~-|-6666-7-4444-6-3p--

G|--------------|--------------------
D|--------------|--------------------
A|--------------|--------------------
E|--------------|--------------------
B|--0-2-3-6-5-6-|--5p5p5p5p6p6p6p6p--

G|-------------------------------------
D|-------------------------------------
A|-------------------------------------
E|-------------------------5-4-444444--
B|--6h5-6h5-333333-6h5-6h5-------------

G|----------------------------------------------
D|----------------------------------------------
A|----------------------------------------------
E|----------------------------------------------
B|--6h5-33-6h5-33-6-7-6-33-6h5-33-6h5-4-333333--

G|---------------------------------------------|------
D|---------------------------------------------|------
A|--------------------66-------------55556666--|------
E|---------------------------------------------|------
B|--3-3-3-3-3-3-3-3-3----3-3-3-3-3-3-----------|--3~--

G|--------------------------------------------|------
D|--------------------------------------------|------
A|--------------------------------------------|------
E|----6-5-----5---------66-55-------55--------|------
B|--3-----6-5---5-4--33-------66-55----55-44--|--3~--

G|------------------|--------------------------
D|------------------|--------------------------
A|------------------|--------------------------
E|------------------|--------------------------
B|--7-6-4~--7-6-3~--|--6p-7p-6p-7p-6p-7p-6p-7p-

G|-----------------------------------|--------------
D|-----------------------------------|--------------
A|-----------------------------------|--------------
E|-----------------------------------|--------------
B|--4444444444-77-66-333333333-77-66-|--6p-7p-6p-7p-

G|--------------------------------------
D|--------------------------------------
A|--------------------------------------
E|--------------------------------------
B|--6666-7-4444-6-3~--6666-7-4444-6-3~--

G|-----------------------------
D|-----------------------------
A|-----------------------------
E|-------5~--------------------
B|--3~-3----3h5-3h6-3h5-3h6-3--

Questions? [email protected]


Текст, аккорды и табулатура для песни "Grotesque Impalement", исполняет "Dying Fetus".
Используемые в песне аккорды можно найти в разделе Как брать аккорды. Аккорды для шестиструнной гитары. Другие песни можно найти на нашем сайте, воспользовавшись алфавитным указателем вверху страницы.


 
Ошибка в тексте? Выделите ошибку и нажмите Ctrl+Enter