This song is so awesome i just listened to it and got it
Song:WHAT WOULD BRIAN BOITANO DO
its rather easy to me just the same song i tabbed it out full to make it easy on ya'll

Intro
G------------|-------------|
D------------|-------------|
A---------4-6|-------------|X4
E-5-55-5-5---|-5-55-5-5-2-0|

1st Verse
G----------|---------|
D----------|---------|
A-------4-6|---------|X2
E-5--------|5-----2-0|

Chorus
G------------|-------------|
D------------|-------------|
A---------4-6|-------------|X2
E-5-55-5-5---|-5-55-5-5-2-0|

2nd Verse
G-------------------|-------------------|
D-------------------|-------------------|
A----------4444-6666|-------------------|X2
E-55555555----------|-55555555-2222-0000|

Chorus
G------------|-------------|
D------------|-------------|
A---------4-6|-------------|X2
E-5-55-5-5---|-5-55-5-5-2-0|

1st Verse
G----------|---------|
D----------|---------|
A-------4-6|---------|X2
E-5--------|5-----2-0|

Chorus
G------------|-------------|
D------------|-------------|
A---------4-6|-------------|X2
E-5-55-5-5---|-5-55-5-5-2-0|

2nd Verse
G-------------------|-------------------|
D-------------------|-------------------|
A----------4444-6666|-------------------|X1
E-55555555----------|-55555555-2222-0000|
on the second time play this
G---------------------|
D---------------------|
A---------------------|
E-55555555--2--2--0--0|

Not Sure About the interlude on chicken wings ...

Chorus
G------------|-------------|
D------------|-------------|
A---------4-6|-------------|X2
E-5-55-5-5---|-5-55-5-5-2-0|

2nd Verse
G-------------------|-------------------|
D-------------------|-------------------|
A----------4444-6666|-------------------|X2
E-55555555----------|-55555555-2222-0000|

Chorus
G------------|-------------|
D------------|-------------|
A---------4-6|-------------|X2
E-5-55-5-5---|-5-55-5-5-2-0|

Outro
G-------------|
D-------------|
A-------------|
E-5-55-5-5-2-0|

RATE PLEASE 
Devon Scruggs thanks M/ (>


Текст, аккорды и табулатура для песни "What Would Brian Boitano Do", исполняет "Dvda".
Используемые в песне аккорды можно найти в разделе Как брать аккорды. Аккорды для шестиструнной гитары. Другие песни можно найти на нашем сайте, воспользовавшись алфавитным указателем вверху страницы.


 
Ошибка в тексте? Выделите ошибку и нажмите Ctrl+Enter