Artist: Duran Duran
Song Title: Sound Of Thunder
Album: Duran Duran (1981)
Song Duration: 04:07 min
Tabbed by: Vuk Krajacic ([email protected])

Instructions:

(     ) - Song time elapsed 

/ - Slide up



Main riff (00:26)
                           
G|--7-7/------------------------3-3---------------------------------|
D|------------------------5-5--5-5-5--------------4---0--0--0-4-0---|
A|--------------------2----------------2--2-22-4-5---------------4--|
E|--------0--0--0-2-3-----------------------------------------------| 

G|------------------------3-3---------------------------------|
D|------------------5-5--5-5-5--------------4---0-0--000-4-7--|
A|--------------2----------------2--2-22-4-5------------------|
E|--0--0--0-2-3-----------------------------------------------| 

G|------------------------3-3---------------------------------|
D|------------------5-5--5-5-5--------------4---0--0--0-4-0---|
A|--------------2----------------2--2-22-4-5---------------4--|
E|--0--0--0-2-3-----------------------------------------------| 

G|------------------------3-3---------------------------------|
D|------------------5-5--5-5-5--------------4--0-0-0--0-0-4-7-|
A|--------------2----------------2--2-22-4-5------------------|
E|--0--0--0-2-3-----------------------------------------------| 


Chorus (00:57)

G|------5---------3---------------5---------3------------|
D|------------------------3------------------------------|
A|--3-3-------1-1----1--------3-3-------1-1----1----0-1--|
E|--------------------1-1-----------------------1-1------| 

G|------5---------3---------------5-------------------|
D|-----------------------3----------------------5/----|
A|--3-3-------1-1-------------3-3-------1-1---5-------|
E|-------------------1-1------------------------------| 


Main riff (01:12)

G|---------------------------3----------------------------------|
D|------------------5-5--5--5-5--------------4---0-0-0--0-4-0---|
A|--------------2----------------2--2-22-4-5-----------------4--|
E|--0--0--0-2-3-------------------------------------------------| 

G|--------------------------3-3---------------------------------|
D|------------------5-5-5--5-5-5--------------4---0-0--0-4-0----|
A|--------------2------------------2--2-22-4-5---------------4--|
E|--0--0--0-2-3-------------------------------------------------| 

G|--------------------------3-3---------------------------------|
D|------------------5-5-5--5-5-5--------------4--0-0-0--0-0-4-7-|
A|--------------2------------------2--2-22-4-5------------------|
E|--0--0--0-2-3-------------------------------------------------| 

G|--------------------------3-3---------------------------------|
D|------------------5-5-5--5-5-5--------------4--0-0-0--0-0-4-7-|
A|--------------2------------------2--2-22-4-5------------------|
E|--0--0--0-2-3-------------------------------------------------| 


Chorus (01:42)

G|------5---------3---------------5---------3------------|
D|------------------------3------------------------------|
A|--3-3-------1-1----1--------3-3-------1-1----1----0-1--|
E|--------------------1-1-----------------------1-1------| 

G|------5---------3---------------5-------------------|
D|-----------------------3----------------------5/----|
A|--3-3-------1-1-------------3-3-------1-1---5-------|
E|-------------------1-1------------------------------| 


Break (01:57)

G|-------------------------------|
D|-------------------------------|
A|---------2-2-2--0-0-0----------|
E|--0-0-0----------------1-1-1---| 


Mid section (02:20)

G|-------------------------------6--6--6--6---9--9--9--9---|
D|----4--4--4--4---7--7--7--7------------------------------|
A|-----------------------------4--4--4--4---7--7--7--7-----|
E|--2--2--2--2---5--5--5--5--------------------------------| 

G|-------------------------------6--6--6--6---9--9--9--9---|
D|----4--4--4--4---7--7--7--7------------------------------|
A|-----------------------------4--4--4--4---7--7--7--7-----|
E|--2--2--2--2---5--5--5--5--------------------------------| 

G|---11-11-11-11---14--14--14--14---6--6--6--6---9--9--9--9---|
D|------------------------------------------------------------|
A|--9--9--9--9---12--12--12--12---4--4--4--4---7--7--7--7-----|
E|------------------------------------------------------------|

G|---11-11-11-11---14--14--14--14---6--6--6--6---9--9--9--9---|
D|------------------------------------------------------------|
A|--9--9--9--9---12--12--12--12---4--4--4--4---7--7--7--7-----|
E|------------------------------------------------------------|

G|---11-11-11-11---14--14--14--14---6--6--6--6---9--9--9--9---|
D|------------------------------------------------------------|
A|--9--9--9--9---12--12--12--12---4--4--4--4---7--7--7--7-----|
E|------------------------------------------------------------|

G|---11-11-11-11---14--14--14--14---6--6--6--6---9--9--9--9---|
D|------------------------------------------------------------|
A|--9--9--9--9---12--12--12--12---4--4--4--4---7--7--7--7-----|
E|------------------------------------------------------------|


Outro (03:05)

G|------------------------------------------------------------------------------|
D|-------------------------------------1------------------------------3---3-----|
A|--------------0-00--1-11--2-22-2-22-2-1-2--4-4-4-4-4-4-4-4-4-4-4-4----4---4---|
E|--2-22--4-44------------------------------------------------------------------| 

G|------------------------------------------------------------------------------|
D|-------------------------------------1--------------------------------3-------|
A|--------------0-00--1-11--2-22-2-22-2-1-2--4-4-4-4-4-4-4-4-4-4-4-4--4--4-2----|
E|--2-22--4-44------------------------------------------------------------------| 

G|------------------------------------------------------------------------------|
D|-------------------------------------1--------------------------------3-------|
A|--------------0-00--1-11--2-22-2-22-2-1-2--4-4-4-4-4-4-4-4-4-4-4-4--4--4-2----|
E|--2-22--4-44------------------------------------------------------------------| 

G|--------------------------------------------------------------------------|
D|-------------------------------------1------------------------------3-4---|
A|--------------0-00--1-11--2-22-2-22-2-1-2--4-4-4-4-4-4-4-4-4-4-4-4--------|
E|--2-22--4-44--------------------------------------------------------------| 

G|-------------------4-444-44-3-4-------------------------------------|
D|--4-4-6-6-7-7-8-8------------------------3-3-4-4----------3-3-4-1---|
A|---------------------------------4-4-6-6----------4-4-6-6-----------|
E|--------------------------------------------------------------------| 

G|---------------------------------------------------------------------2----|
D|-------------------------------------1---------3----4-----5----6----------|
A|--------------0-00--1-11--2-22-2-22-2-1-2--4-4--4--4--44----44---44----4--|
E|--2-22--4-44--------------------------------------------------------------| 

Fade out:

G|---------------------------------------------------------------------2----|
D|-------------------------------------1---------3----4-----5----6----------|
A|--------------0-00--1-11--2-22-2-22-2-1-2--4-4--4--4--44----44---44----4--|
E|--2-22--4-44--------------------------------------------------------------| 

G|---------------------------------------------------------------------2----|
D|-------------------------------------1---------3----4-----5----6----------|
A|--------------0-00--1-11--2-22-2-22-2-1-2--4-4--4--4--44----44---44----4--|
E|--2-22--4-44--------------------------------------------------------------| 


End.




Please send your comments to [email protected]


Текст, аккорды и табулатура для песни "Sound Of Thunder", исполняет "Duran Duran".
Используемые в песне аккорды можно найти в разделе Как брать аккорды. Аккорды для шестиструнной гитары. Другие песни можно найти на нашем сайте, воспользовавшись алфавитным указателем вверху страницы.


Слушать онлайн Sound Of Thunder


Duran DuranSound Of Thunder на Яндекс.Музыке


 
Ошибка в тексте? Выделите ошибку и нажмите Ctrl+Enter